999
FreeCAD v0.19 24291 (Git)
  0
SECTION
  2
HEADER
  9
$ACADVER
  1
AC1014
  9
$ACADMAINTVER
 70
     9
  9
$DWGCODEPAGE
  3
ANSI_1252
  9
$TEXTSTYLE
  7
STANDARD
  9
$DIMSTYLE
  2
STANDARD
  9
$DIMTXSTY
  7
STANDARD
  9
$CMLSTYLE
  2
STANDARD
  9
$PEXTMAX
 10
50
 20
50
 30
50
  9
$PEXTMIN
 10
0
 20
0
 30
0
  9
$HANDSEED
  5
FFFF
  0
ENDSEC
  0
SECTION
  2
CLASSES
  0
CLASS
  1
ACDBDICTIONARYWDFLT
  2
AcDbDictionaryWithDefault
  3
ObjectDBX Classes
 90
        0
280
     0
281
     0
  0
CLASS
  1
XRECORD
  2
AcDbXrecord
  3
ObjectDBX Classes
 90
        0
280
     0
281
     0
  0
CLASS
  1
LWPOLYLINE
  2
AcDbPolyline
  3
ObjectDBX Classes
 90
        0
280
     0
281
     1
  0
ENDSEC
  0
SECTION
  2
TABLES
  0
TABLE
  2
VPORT
  5
20
330
0
100
AcDbSymbolTable
 70
     1
  0
VPORT
  5
21
330
20
100
AcDbSymbolTableRecord
100
AcDbViewportTableRecord
  2
*ACTIVE
 70
     0
  0
ENDTAB
  0
TABLE
  2
LTYPE
  5
22
330
0
100
AcDbSymbolTable
 70
     1
  0
LTYPE
  5
23
330
21
100
AcDbSymbolTableRecord
100
AcDbLinetypeTableRecord
  2
BYBLOCK
 70
     0
  3

 72
    65
 73
     0
 40
0.0
  0
LTYPE
  5
24
330
21
100
AcDbSymbolTableRecord
100
AcDbLinetypeTableRecord
  2
BYLAYER
 70
     0
  3

 72
    65
 73
     0
 40
0.0
  0
LTYPE
  5
25
330
21
100
AcDbSymbolTableRecord
100
AcDbLinetypeTableRecord
  2
CONTINUOUS
 70
     0
  3
Solid line
 72
    65
 73
     0
 40
0.0
  0
ENDTAB
  0
TABLE
  2
LAYER
  5
B30
330
0
100
AcDbSymbolTable
 70
3
  0
LAYER
  5
B31
330
B30
100
AcDbSymbolTableRecord
100
AcDbLayerTableRecord
  2
0
 70
   0
 62
   7
  6
CONTINUOUS
  0
LAYER
  5
B32
330
B30
100
AcDbSymbolTableRecord
100
AcDbLayerTableRecord
  2
none
 70
    0
 62
    7
  6
CONTINUOUS
  0
LAYER
  5
B33
330
B30
100
AcDbSymbolTableRecord
100
AcDbLayerTableRecord
  2
Solid
 70
    0
 62
    7
  6
CONTINUOUS
  0
ENDTAB
  0
TABLE
  2
STYLE
  5
70
330
0
100
AcDbSymbolTable
 70
     2
  0
STYLE
  5
71
330
70
100
AcDbSymbolTableRecord
100
AcDbTextStyleTableRecord
  2
STANDARD
 70
     0
 40
0.0
 41
1.0
 50
0.0
 71
     0
 42
2.5
  3
arial.ttf
  4

  0
STYLE
  5
72
330
70
100
AcDbSymbolTableRecord
100
AcDbTextStyleTableRecord
  2
ANNOTATIVE
 70
     0
 40
0.0
 41
1.0
 50
0.0
 71
     0
 42
2.5
  3
arial.ttf
  4

  0
ENDTAB
  0
TABLE
  2
VIEW
  5
73
330
0
100
AcDbSymbolTable
 70
     0
  0
ENDTAB
  0
TABLE
  2
UCS
  5
74
330
0
100
AcDbSymbolTable
 70
     0
  0
ENDTAB
  0
TABLE
  2
APPID
  5
75
330
0
100
AcDbSymbolTable
 70
     2
  0
APPID
  5
76
330
75
100
AcDbSymbolTableRecord
100
AcDbRegAppTableRecord
  2
ACAD
 70
     0
  0
APPID
  5
77
330
75
100
AcDbSymbolTableRecord
100
AcDbRegAppTableRecord
  2
ACADANNOTATIVE
 70
     0
  0
ENDTAB
  0
TABLE
  2
DIMSTYLE
  5
78
330
0
100
AcDbSymbolTable
 70
     2
  0
DIMSTYLE
105
79
330
78
100
AcDbSymbolTableRecord
100
AcDbDimStyleTableRecord
  2
STANDARD
 70
     0
  3

  4

  5

  6

  7

 40
0.0
 41
2.5
 42
0.625
 43
3.75
 44
1.25
 45
0.0
 46
0.0
 47
0.0
 48
0.0
140
2.5
141
2.5
142
0.0
143
0.03937007874016
144
1.0
145
0.0
146
1.0
147
0.625
 71
     0
 72
     0
 73
     0
 74
     0
 75
     0
 76
     0
 77
     1
 78
     8
170
     0
171
     3
172
     1
173
     0
174
     0
175
     0
176
     0
177
     0
178
     0
270
     2
271
     2
272
     2
273
     2
274
     3
340
71
275
     0
280
     0
281
     0
282
     0
283
     0
284
     8
285
     0
286
     0
287
     3
288
     0
  0
ENDTAB
  0
TABLE
  2
BLOCK_RECORD
  5
A01
330
0
100
AcDbSymbolTable
  70
5
  0
BLOCK_RECORD
  5
A02
330
A01
100
AcDbSymbolTableRecord
100
AcDbBlockTableRecord
  2
*MODEL_SPACE
  0
BLOCK_RECORD
  5
A03
330
A01
100
AcDbSymbolTableRecord
100
AcDbBlockTableRecord
  2
*PAPER_SPACE
  0
ENDTAB
  0
ENDSEC
  0
SECTION
  2
BLOCKS
  0
BLOCK
  5
A04
330
A02
100
AcDbEntity
  8
0
100
AcDbBlockBegin
  2
*MODEL_SPACE
 70
   0
 10
0
 20
0
 30
0
  3
*MODEL_SPACE
  1
 
  0
ENDBLK
  5
A05
330
A02
100
AcDbEntity
  8
0
100
AcDbBlockEnd
  0
BLOCK
  5
A06
330
A03
100
AcDbEntity
 67
1
  8
0
100
AcDbBlockBegin
  2
*PAPER_SPACE
 70
   0
 10
0
 20
0
 30
0
  3
*PAPER_SPACE
  1
 
  0
ENDBLK
  5
A07
330
A03
100
AcDbEntity
 67
    1
  8
0
100
AcDbBlockEnd
  0
ENDSEC
  0
SECTION
  2
ENTITIES
  0
LINE
  5
A08
330
A02
100
AcDbEntity
  8
Solid
100
AcDbLine
 10
-12.5
 20
1
 30
-44.95
 11
-12.5
 21
3.5
 31
-42.95
  0
ARC
  5
A09
330
A02
100
AcDbEntity
  8
Solid
100
AcDbCircle
 10
-12.5
 20
3.5
 30
-46.7
 40
0
100
AcDbArc
 50
180
 51
0
  0
LINE
  5
A0A
330
A02
100
AcDbEntity
  8
Solid
100
AcDbLine
 10
-12.5
 20
1
 30
-48.45
 11
-12.5
 21
3.5
 31
-50.45
  0
ARC
  5
A0B
330
A02
100
AcDbEntity
  8
Solid
100
AcDbCircle
 10
-12.5
 20
1
 30
-46.7
 40
0
100
AcDbArc
 50
0
 51
0
  0
LINE
  5
A0C
330
A02
100
AcDbEntity
  8
Solid
100
AcDbLine
 10
12.5
 20
1
 30
-44.95
 11
12.5
 21
3.5
 31
-42.95
  0
ARC
  5
A0D
330
A02
100
AcDbEntity
  8
Solid
100
AcDbCircle
 10
12.5
 20
3.5
 30
-46.7
 40
0
100
AcDbArc
 50
180
 51
0
  0
LINE
  5
A0E
330
A02
100
AcDbEntity
  8
Solid
100
AcDbLine
 10
12.5
 20
1
 30
-48.45
 11
12.5
 21
3.5
 31
-50.45
  0
ARC
  5
A0F
330
A02
100
AcDbEntity
  8
Solid
100
AcDbCircle
 10
12.5
 20
1
 30
-46.7
 40
0
100
AcDbArc
 50
0
 51
0
  0
LINE
  5
A10
330
A02
100
AcDbEntity
  8
Solid
100
AcDbLine
 10
-12.5
 20
1
 30
48.45
 11
-12.5
 21
3.5
 31
50.45
  0
ARC
  5
A11
330
A02
100
AcDbEntity
  8
Solid
100
AcDbCircle
 10
-12.5
 20
3.5
 30
46.7
 40
0
100
AcDbArc
 50
180
 51
0
  0
LINE
  5
A12
330
A02
100
AcDbEntity
  8
Solid
100
AcDbLine
 10
-12.5
 20
1
 30
44.95
 11
-12.5
 21
3.5
 31
42.95
  0
ARC
  5
A13
330
A02
100
AcDbEntity
  8
Solid
100
AcDbCircle
 10
-12.5
 20
1
 30
46.7
 40
0
100
AcDbArc
 50
0
 51
0
  0
LINE
  5
A14
330
A02
100
AcDbEntity
  8
Solid
100
AcDbLine
 10
12.5
 20
1
 30
48.45
 11
12.5
 21
3.5
 31
50.45
  0
ARC
  5
A15
330
A02
100
AcDbEntity
  8
Solid
100
AcDbCircle
 10
12.5
 20
3.5
 30
46.7
 40
0
100
AcDbArc
 50
180
 51
0
  0
LINE
  5
A16
330
A02
100
AcDbEntity
  8
Solid
100
AcDbLine
 10
12.5
 20
1
 30
44.95
 11
12.5
 21
3.5
 31
42.95
  0
ARC
  5
A17
330
A02
100
AcDbEntity
  8
Solid
100
AcDbCircle
 10
12.5
 20
1
 30
46.7
 40
0
100
AcDbArc
 50
0
 51
0
  0
LINE
  5
A18
330
A02
100
AcDbEntity
  8
Solid
100
AcDbLine
 10
12.5
 20
0
 30
-44.95
 11
12.5
 21
1
 31
-44.95
  0
ARC
  5
A19
330
A02
100
AcDbEntity
  8
Solid
100
AcDbCircle
 10
12.5
 20
1
 30
-46.7
 40
0
100
AcDbArc
 50
0
 51
0
  0
LINE
  5
A1A
330
A02
100
AcDbEntity
  8
Solid
100
AcDbLine
 10
12.5
 20
0
 30
-48.45
 11
12.5
 21
1
 31
-48.45
  0
ARC
  5
A1B
330
A02
100
AcDbEntity
  8
Solid
100
AcDbCircle
 10
12.5
 20
0
 30
-46.7
 40
0
100
AcDbArc
 50
0
 51
0
  0
LINE
  5
A1C
330
A02
100
AcDbEntity
  8
Solid
100
AcDbLine
 10
12.5
 20
0
 30
48.45
 11
12.5
 21
1
 31
48.45
  0
ARC
  5
A1D
330
A02
100
AcDbEntity
  8
Solid
100
AcDbCircle
 10
12.5
 20
1
 30
46.7
 40
0
100
AcDbArc
 50
0
 51
0
  0
LINE
  5
A1E
330
A02
100
AcDbEntity
  8
Solid
100
AcDbLine
 10
12.5
 20
0
 30
44.95
 11
12.5
 21
1
 31
44.95
  0
ARC
  5
A1F
330
A02
100
AcDbEntity
  8
Solid
100
AcDbCircle
 10
12.5
 20
0
 30
46.7
 40
0
100
AcDbArc
 50
0
 51
0
  0
LINE
  5
A20
330
A02
100
AcDbEntity
  8
Solid
100
AcDbLine
 10
-12.5
 20
0
 30
48.45
 11
-12.5
 21
1
 31
48.45
  0
ARC
  5
A21
330
A02
100
AcDbEntity
  8
Solid
100
AcDbCircle
 10
-12.5
 20
1
 30
46.7
 40
0
100
AcDbArc
 50
0
 51
0
  0
LINE
  5
A22
330
A02
100
AcDbEntity
  8
Solid
100
AcDbLine
 10
-12.5
 20
0
 30
44.95
 11
-12.5
 21
1
 31
44.95
  0
ARC
  5
A23
330
A02
100
AcDbEntity
  8
Solid
100
AcDbCircle
 10
-12.5
 20
0
 30
46.7
 40
0
100
AcDbArc
 50
0
 51
0
  0
LINE
  5
A24
330
A02
100
AcDbEntity
  8
Solid
100
AcDbLine
 10
-12.5
 20
0
 30
-44.95
 11
-12.5
 21
1
 31
-44.95
  0
ARC
  5
A25
330
A02
100
AcDbEntity
  8
Solid
100
AcDbCircle
 10
-12.5
 20
1
 30
-46.7
 40
0
100
AcDbArc
 50
0
 51
0
  0
LINE
  5
A26
330
A02
100
AcDbEntity
  8
Solid
100
AcDbLine
 10
-12.5
 20
0
 30
-48.45
 11
-12.5
 21
1
 31
-48.45
  0
ARC
  5
A27
330
A02
100
AcDbEntity
  8
Solid
100
AcDbCircle
 10
-12.5
 20
0
 30
-46.7
 40
0
100
AcDbArc
 50
0
 51
0
  0
LINE
  5
A28
330
A02
100
AcDbEntity
  8
Solid
100
AcDbLine
 10
11.0984
 20
-8
 30
20
 11
11.5
 21
3.5
 31
20
  0
ARC
  5
A29
330
A02
100
AcDbEntity
  8
Solid
100
AcDbCircle
 10
0
 20
3.5
 30
20
 40
0
100
AcDbArc
 50
0
 51
0
  0
LINE
  5
A2A
330
A02
100
AcDbEntity
  8
Solid
100
AcDbLine
 10
0
 20
-8
 30
31.0984
 11
0
 21
3.5
 31
31.5
  0
ARC
  5
A2B
330
A02
100
AcDbEntity
  8
Solid
100
AcDbCircle
 10
0
 20
-8
 30
20
 40
11.0984
100
AcDbArc
 50
0
 51
0
  0
ARC
  5
A2C
330
A02
100
AcDbEntity
  8
Solid
100
AcDbCircle
 10
0
 20
-10
 30
-36.5
 40
0
100
AcDbArc
 50
0
 51
0
  0
LINE
  5
A2D
330
A02
100
AcDbEntity
  8
Solid
100
AcDbLine
 10
0
 20
-10
 30
-42.1508
 11
0
 21
0
 31
-42.5
  0
ARC
  5
A2E
330
A02
100
AcDbEntity
  8
Solid
100
AcDbCircle
 10
0
 20
0
 30
-36.5
 40
0
100
AcDbArc
 50
0
 51
0
  0
SPLINE
  5
A2F
330
A02
100
AcDbEntity
  8
Solid
100
AcDbSpline
210
0
220
0
230
1
 70
8
 71
1
 72
4
 73
2
 74
0
 40
3.32758e-20
 40
3.32758e-20
 40
0.0100062
 40
0.0100062
 10
5.94407
 20
0
 30
-37.3173
 10
5.60448
 20
-10
 30
-37.222
  0
ARC
  5
A30
330
A02
100
AcDbEntity
  8
Solid
100
AcDbCircle
 10
12.5
 20
0
 30
-46.7
 40
0
100
AcDbArc
 50
0
 51
0
  0
ARC
  5
A31
330
A02
100
AcDbEntity
  8
Solid
100
AcDbCircle
 10
12.5
 20
0
 30
-46.7
 40
0
100
AcDbArc
 50
0
 51
0
  0
ARC
  5
A32
330
A02
100
AcDbEntity
  8
Solid
100
AcDbCircle
 10
12.5
 20
0
 30
46.7
 40
0
100
AcDbArc
 50
0
 51
0
  0
ARC
  5
A33
330
A02
100
AcDbEntity
  8
Solid
100
AcDbCircle
 10
12.5
 20
0
 30
46.7
 40
0
100
AcDbArc
 50
0
 51
0
  0
ARC
  5
A34
330
A02
100
AcDbEntity
  8
Solid
100
AcDbCircle
 10
-12.5
 20
0
 30
46.7
 40
0
100
AcDbArc
 50
0
 51
0
  0
ARC
  5
A35
330
A02
100
AcDbEntity
  8
Solid
100
AcDbCircle
 10
-12.5
 20
0
 30
46.7
 40
0
100
AcDbArc
 50
0
 51
0
  0
ARC
  5
A36
330
A02
100
AcDbEntity
  8
Solid
100
AcDbCircle
 10
-12.5
 20
0
 30
-46.7
 40
0
100
AcDbArc
 50
0
 51
0
  0
ARC
  5
A37
330
A02
100
AcDbEntity
  8
Solid
100
AcDbCircle
 10
-12.5
 20
0
 30
-46.7
 40
0
100
AcDbArc
 50
0
 51
0
  0
LINE
  5
A38
330
A02
100
AcDbEntity
  8
Solid
100
AcDbLine
 10
20
 20
0
 30
53.5
 11
20
 21
0
 31
-53.5
  0
SPLINE
  5
A39
330
A02
100
AcDbEntity
  8
Solid
100
AcDbSpline
210
0
220
0
230
1
 70
8
 71
3
 72
11
 73
7
 74
0
 40
0
 40
0
 40
0
 40
0
 40
0.40397
 40
0.40397
 40
0.40397
 40
1
 40
1
 40
1
 40
1
 10
1.59872e-14
 20
0
 30
59.9
 10
3.86824
 20
0
 30
59.9
 10
6.24822
 20
0
 30
58.9713
 10
8.36576
 20
0
 30
57.8303
 10
11.49
 20
0
 30
56.1469
 10
14.043
 20
0
 30
54.0013
 10
20
 20
0
 30
53.5
  0
SPLINE
  5
A3A
330
A02
100
AcDbEntity
  8
Solid
100
AcDbSpline
210
0
220
0
230
1
 70
8
 71
3
 72
11
 73
7
 74
0
 40
0
 40
0
 40
0
 40
0
 40
0.59603
 40
0.59603
 40
0.59603
 40
1
 40
1
 40
1
 40
1
 10
-20
 20
0
 30
53.5
 10
-14.043
 20
0
 30
54.0013
 10
-11.49
 20
0
 30
56.1469
 10
-8.36576
 20
0
 30
57.8303
 10
-6.24822
 20
0
 30
58.9713
 10
-3.86824
 20
0
 30
59.9
 10
1.59872e-14
 20
0
 30
59.9
  0
LINE
  5
A3B
330
A02
100
AcDbEntity
  8
Solid
100
AcDbLine
 10
-20
 20
0
 30
-53.5
 11
-20
 21
0
 31
53.5
  0
SPLINE
  5
A3C
330
A02
100
AcDbEntity
  8
Solid
100
AcDbSpline
210
0
220
0
230
1
 70
8
 71
3
 72
11
 73
7
 74
0
 40
0
 40
0
 40
0
 40
0
 40
0.40397
 40
0.40397
 40
0.40397
 40
1
 40
1
 40
1
 40
1
 10
1.77636e-15
 20
0
 30
-59.9
 10
-3.86824
 20
0
 30
-59.9
 10
-6.24822
 20
0
 30
-58.9713
 10
-8.36576
 20
0
 30
-57.8303
 10
-11.49
 20
0
 30
-56.1469
 10
-14.043
 20
0
 30
-54.0013
 10
-20
 20
0
 30
-53.5
  0
SPLINE
  5
A3D
330
A02
100
AcDbEntity
  8
Solid
100
AcDbSpline
210
0
220
0
230
1
 70
8
 71
3
 72
11
 73
7
 74
0
 40
0
 40
0
 40
0
 40
0
 40
0.59603
 40
0.59603
 40
0.59603
 40
1
 40
1
 40
1
 40
1
 10
20
 20
0
 30
-53.5
 10
14.043
 20
0
 30
-54.0013
 10
11.49
 20
0
 30
-56.1469
 10
8.36576
 20
0
 30
-57.8303
 10
6.24822
 20
0
 30
-58.9713
 10
3.86824
 20
0
 30
-59.9
 10
8.88178e-16
 20
0
 30
-59.9
  0
ARC
  5
A3E
330
A02
100
AcDbEntity
  8
Solid
100
AcDbCircle
 10
-7.34788e-15
 20
0
 30
-20
 40
9.37988
100
AcDbArc
 50
0
 51
0
  0
SPLINE
  5
A3F
330
A02
100
AcDbEntity
  8
Solid
100
AcDbSpline
210
0
220
0
230
1
 70
8
 71
2
 72
8
 73
5
 74
0
 40
1.73472e-18
 40
1.73472e-18
 40
1.73472e-18
 40
0.00363079
 40
0.00363079
 40
0.00726157
 40
0.00726157
 40
0.00726157
 10
9.37988
 20
0
 30
-31.0575
 10
7.97383
 20
1.67192e-17
 30
-32.2531
 10
7.08378
 20
0
 30
-33.87
 10
6.1977
 20
0
 30
-35.4891
 10
5.94407
 20
0
 30
-37.3173
  0
ARC
  5
A40
330
A02
100
AcDbEntity
  8
Solid
100
AcDbCircle
 10
0
 20
0
 30
-36.5
 40
0
100
AcDbArc
 50
0
 51
0
  0
ARC
  5
A41
330
A02
100
AcDbEntity
  8
Solid
100
AcDbCircle
 10
0
 20
0
 30
-36.5
 40
5.94407
100
AcDbArc
 50
180
 51
180
  0
SPLINE
  5
A42
330
A02
100
AcDbEntity
  8
Solid
100
AcDbSpline
210
0
220
0
230
1
 70
8
 71
2
 72
8
 73
5
 74
0
 40
0
 40
0
 40
0
 40
0.00363079
 40
0.00363079
 40
0.00726157
 40
0.00726157
 40
0.00726157
 10
-5.94407
 20
0
 30
-37.3173
 10
-6.1977
 20
1.6786e-17
 30
-35.4891
 10
-7.08378
 20
0
 30
-33.87
 10
-7.97383
 20
0
 30
-32.2531
 10
-9.37988
 20
0
 30
-31.0575
  0
ARC
  5
A43
330
A02
100
AcDbEntity
  8
Solid
100
AcDbCircle
 10
-7.34788e-15
 20
0
 30
-20
 40
14.5
100
AcDbArc
 50
180
 51
180
  0
LINE
  5
A44
330
A02
100
AcDbEntity
  8
Solid
100
AcDbLine
 10
-14.5
 20
0
 30
20
 11
-14.5
 21
0
 31
-20
  0
ARC
  5
A45
330
A02
100
AcDbEntity
  8
Solid
100
AcDbCircle
 10
0
 20
0
 30
20
 40
9.37988
100
AcDbArc
 50
180
 51
180
  0
SPLINE
  5
A46
330
A02
100
AcDbEntity
  8
Solid
100
AcDbSpline
210
0
220
0
230
1
 70
8
 71
2
 72
8
 73
5
 74
0
 40
0
 40
0
 40
0
 40
0.00363079
 40
0.00363079
 40
0.00726157
 40
0.00726157
 40
0.00726157
 10
-9.37988
 20
0
 30
31.0575
 10
-7.97383
 20
-1.04183e-16
 30
32.2531
 10
-7.08378
 20
0
 30
33.87
 10
-6.1977
 20
0
 30
35.4891
 10
-5.94407
 20
0
 30
37.3173
  0
ARC
  5
A47
330
A02
100
AcDbEntity
  8
Solid
100
AcDbCircle
 10
-1.34099e-14
 20
0
 30
36.5
 40
5.94407
100
AcDbArc
 50
180
 51
0
  0
SPLINE
  5
A48
330
A02
100
AcDbEntity
  8
Solid
100
AcDbSpline
210
0
220
0
230
1
 70
8
 71
2
 72
8
 73
5
 74
0
 40
0
 40
0
 40
0
 40
0.00363079
 40
0.00363079
 40
0.00726157
 40
0.00726157
 40
0.00726157
 10
5.94407
 20
0
 30
37.3173
 10
6.1977
 20
-2.01432e-17
 30
35.4891
 10
7.08378
 20
0
 30
33.87
 10
7.97383
 20
0
 30
32.2531
 10
9.37988
 20
0
 30
31.0575
  0
ARC
  5
A49
330
A02
100
AcDbEntity
  8
Solid
100
AcDbCircle
 10
0
 20
0
 30
20
 40
14.5
100
AcDbArc
 50
0
 51
0
  0
LINE
  5
A4A
330
A02
100
AcDbEntity
  8
Solid
100
AcDbLine
 10
14.5
 20
0
 30
-20
 11
14.5
 21
0
 31
20
  0
LINE
  5
A4B
330
A02
100
AcDbEntity
  8
Solid
100
AcDbLine
 10
20
 20
0
 30
53.5
 11
20
 21
0
 31
-53.5
  0
LINE
  5
A4C
330
A02
100
AcDbEntity
  8
Solid
100
AcDbLine
 10
20
 20
3.5
 30
-53.5
 11
20
 21
0
 31
-53.5
  0
LINE
  5
A4D
330
A02
100
AcDbEntity
  8
Solid
100
AcDbLine
 10
20
 20
3.5
 30
53.5
 11
20
 21
3.5
 31
-53.5
  0
LINE
  5
A4E
330
A02
100
AcDbEntity
  8
Solid
100
AcDbLine
 10
20
 20
3.5
 30
53.5
 11
20
 21
0
 31
53.5
  0
LINE
  5
A4F
330
A02
100
AcDbEntity
  8
Solid
100
AcDbLine
 10
-20
 20
0
 30
-53.5
 11
-20
 21
0
 31
53.5
  0
LINE
  5
A50
330
A02
100
AcDbEntity
  8
Solid
100
AcDbLine
 10
-20
 20
3.5
 30
53.5
 11
-20
 21
0
 31
53.5
  0
LINE
  5
A51
330
A02
100
AcDbEntity
  8
Solid
100
AcDbLine
 10
-20
 20
3.5
 30
-53.5
 11
-20
 21
3.5
 31
53.5
  0
LINE
  5
A52
330
A02
100
AcDbEntity
  8
Solid
100
AcDbLine
 10
-20
 20
3.5
 30
-53.5
 11
-20
 21
0
 31
-53.5
  0
LINE
  5
A53
330
A02
100
AcDbEntity
  8
Solid
100
AcDbLine
 10
18
 20
3.5
 30
51.7219
 11
18
 21
3.5
 31
-51.7219
  0
SPLINE
  5
A54
330
A02
100
AcDbEntity
  8
Solid
100
AcDbSpline
210
0
220
0
230
1
 70
8
 71
3
 72
23
 73
19
 74
0
 40
0
 40
0
 40
0
 40
0
 40
0.25
 40
0.25
 40
0.25
 40
0.375
 40
0.375
 40
0.375
 40
0.5
 40
0.5
 40
0.5
 40
0.625
 40
0.625
 40
0.625
 40
0.75
 40
0.75
 40
0.75
 40
1
 40
1
 40
1
 40
1
 10
1.59872e-14
 20
3.5
 30
57.9
 10
1.61884
 20
3.5
 30
57.9
 10
3.2112
 20
3.5
 30
57.724
 10
4.75585
 20
3.5
 30
57.2308
 10
5.53078
 20
3.5
 30
56.9842
 10
6.2739
 20
3.5
 30
56.6616
 10
6.98881
 20
3.5
 30
56.2948
 10
7.70517
 20
3.5
 30
55.9282
 10
8.39962
 20
3.5
 30
55.5194
 10
9.09523
 20
3.5
 30
55.1129
 10
9.79083
 20
3.5
 30
54.7063
 10
10.4882
 20
3.5
 30
54.3031
 10
11.2027
 20
3.5
 30
53.933
 10
11.917
 20
3.5
 30
53.5611
 10
12.6446
 20
3.5
 30
53.2297
 10
13.3855
 20
3.5
 30
52.9386
 10
14.868
 20
3.5
 30
52.3601
 10
16.4094
 20
3.5
 30
51.9647
 10
18
 20
3.5
 30
51.7219
  0
SPLINE
  5
A55
330
A02
100
AcDbEntity
  8
Solid
100
AcDbSpline
210
0
220
0
230
1
 70
8
 71
3
 72
26
 73
22
 74
0
 40
0
 40
0
 40
0
 40
0
 40
0.25
 40
0.25
 40
0.25
 40
0.375
 40
0.375
 40
0.375
 40
0.5
 40
0.5
 40
0.5
 40
0.625
 40
0.625
 40
0.625
 40
0.75
 40
0.75
 40
0.75
 40
0.875
 40
0.875
 40
0.875
 40
1
 40
1
 40
1
 40
1
 10
-18
 20
3.5
 30
51.7219
 10
-16.4053
 20
3.5
 30
51.9643
 10
-14.8583
 20
3.5
 30
52.3611
 10
-13.3691
 20
3.5
 30
52.9451
 10
-12.6234
 20
3.5
 30
53.2389
 10
-11.8924
 20
3.5
 30
53.5728
 10
-11.176
 20
3.5
 30
53.9469
 10
-10.4604
 20
3.5
 30
54.3185
 10
-9.76258
 20
3.5
 30
54.7227
 10
-9.06629
 20
3.5
 30
55.1298
 10
-8.36999
 20
3.5
 30
55.5368
 10
-7.6746
 20
3.5
 30
55.9455
 10
-6.95598
 20
3.5
 30
56.3115
 10
-6.23634
 20
3.5
 30
56.6792
 10
-5.49295
 20
3.5
 30
56.998
 10
-4.73534
 20
3.5
 30
57.2374
 10
-3.97635
 20
3.5
 30
57.4762
 10
-3.20043
 20
3.5
 30
57.6473
 10
-2.40758
 20
3.5
 30
57.7506
 10
-1.61521
 20
3.5
 30
57.8558
 10
-0.806369
 20
3.5
 30
57.9
 10
1.59872e-14
 20
3.5
 30
57.9
  0
LINE
  5
A56
330
A02
100
AcDbEntity
  8
Solid
100
AcDbLine
 10
-18
 20
3.5
 30
-51.7219
 11
-18
 21
3.5
 31
51.7219
  0
SPLINE
  5
A57
330
A02
100
AcDbEntity
  8
Solid
100
AcDbSpline
210
0
220
0
230
1
 70
8
 71
3
 72
23
 73
19
 74
0
 40
0
 40
0
 40
0
 40
0
 40
0.25
 40
0.25
 40
0.25
 40
0.375
 40
0.375
 40
0.375
 40
0.5
 40
0.5
 40
0.5
 40
0.625
 40
0.625
 40
0.625
 40
0.75
 40
0.75
 40
0.75
 40
1
 40
1
 40
1
 40
1
 10
-8.88178e-16
 20
3.5
 30
-57.9
 10
-1.61884
 20
3.5
 30
-57.9
 10
-3.2112
 20
3.5
 30
-57.724
 10
-4.75585
 20
3.5
 30
-57.2308
 10
-5.53078
 20
3.5
 30
-56.9842
 10
-6.2739
 20
3.5
 30
-56.6616
 10
-6.98881
 20
3.5
 30
-56.2948
 10
-7.70517
 20
3.5
 30
-55.9282
 10
-8.39962
 20
3.5
 30
-55.5194
 10
-9.09523
 20
3.5
 30
-55.1129
 10
-9.79083
 20
3.5
 30
-54.7063
 10
-10.4882
 20
3.5
 30
-54.3031
 10
-11.2027
 20
3.5
 30
-53.933
 10
-11.917
 20
3.5
 30
-53.5611
 10
-12.6446
 20
3.5
 30
-53.2297
 10
-13.3855
 20
3.5
 30
-52.9386
 10
-14.868
 20
3.5
 30
-52.3601
 10
-16.4094
 20
3.5
 30
-51.9647
 10
-18
 20
3.5
 30
-51.7219
  0
SPLINE
  5
A58
330
A02
100
AcDbEntity
  8
Solid
100
AcDbSpline
210
0
220
0
230
1
 70
8
 71
3
 72
26
 73
22
 74
0
 40
0
 40
0
 40
0
 40
0
 40
0.25
 40
0.25
 40
0.25
 40
0.375
 40
0.375
 40
0.375
 40
0.5
 40
0.5
 40
0.5
 40
0.625
 40
0.625
 40
0.625
 40
0.75
 40
0.75
 40
0.75
 40
0.875
 40
0.875
 40
0.875
 40
1
 40
1
 40
1
 40
1
 10
18
 20
3.5
 30
-51.7219
 10
16.4053
 20
3.5
 30
-51.9643
 10
14.8583
 20
3.5
 30
-52.3611
 10
13.3691
 20
3.5
 30
-52.9451
 10
12.6234
 20
3.5
 30
-53.2389
 10
11.8924
 20
3.5
 30
-53.5728
 10
11.176
 20
3.5
 30
-53.9469
 10
10.4604
 20
3.5
 30
-54.3185
 10
9.76258
 20
3.5
 30
-54.7227
 10
9.06629
 20
3.5
 30
-55.1298
 10
8.36999
 20
3.5
 30
-55.5368
 10
7.6746
 20
3.5
 30
-55.9455
 10
6.95598
 20
3.5
 30
-56.3115
 10
6.23634
 20
3.5
 30
-56.6792
 10
5.49295
 20
3.5
 30
-56.998
 10
4.73534
 20
3.5
 30
-57.2374
 10
3.97635
 20
3.5
 30
-57.4762
 10
3.20043
 20
3.5
 30
-57.6473
 10
2.40758
 20
3.5
 30
-57.7506
 10
1.61521
 20
3.5
 30
-57.8558
 10
0.806369
 20
3.5
 30
-57.9
 10
-1.55431e-15
 20
3.5
 30
-57.9
  0
LINE
  5
A59
330
A02
100
AcDbEntity
  8
Solid
100
AcDbLine
 10
20
 20
3.5
 30
53.5
 11
20
 21
3.5
 31
-53.5
  0
SPLINE
  5
A5A
330
A02
100
AcDbEntity
  8
Solid
100
AcDbSpline
210
0
220
0
230
1
 70
8
 71
3
 72
11
 73
7
 74
0
 40
0
 40
0
 40
0
 40
0
 40
0.59603
 40
0.59603
 40
0.59603
 40
1
 40
1
 40
1
 40
1
 10
20
 20
3.5
 30
-53.5
 10
14.043
 20
3.5
 30
-54.0013
 10
11.49
 20
3.5
 30
-56.1469
 10
8.36576
 20
3.5
 30
-57.8303
 10
6.24822
 20
3.5
 30
-58.9713
 10
3.86824
 20
3.5
 30
-59.9
 10
8.88178e-16
 20
3.5
 30
-59.9
  0
SPLINE
  5
A5B
330
A02
100
AcDbEntity
  8
Solid
100
AcDbSpline
210
0
220
0
230
1
 70
8
 71
3
 72
11
 73
7
 74
0
 40
0
 40
0
 40
0
 40
0
 40
0.40397
 40
0.40397
 40
0.40397
 40
1
 40
1
 40
1
 40
1
 10
1.77636e-15
 20
3.5
 30
-59.9
 10
-3.86824
 20
3.5
 30
-59.9
 10
-6.24822
 20
3.5
 30
-58.9713
 10
-8.36576
 20
3.5
 30
-57.8303
 10
-11.49
 20
3.5
 30
-56.1469
 10
-14.043
 20
3.5
 30
-54.0013
 10
-20
 20
3.5
 30
-53.5
  0
LINE
  5
A5C
330
A02
100
AcDbEntity
  8
Solid
100
AcDbLine
 10
-20
 20
3.5
 30
-53.5
 11
-20
 21
3.5
 31
53.5
  0
SPLINE
  5
A5D
330
A02
100
AcDbEntity
  8
Solid
100
AcDbSpline
210
0
220
0
230
1
 70
8
 71
3
 72
11
 73
7
 74
0
 40
0
 40
0
 40
0
 40
0
 40
0.59603
 40
0.59603
 40
0.59603
 40
1
 40
1
 40
1
 40
1
 10
-20
 20
3.5
 30
53.5
 10
-14.043
 20
3.5
 30
54.0013
 10
-11.49
 20
3.5
 30
56.1469
 10
-8.36576
 20
3.5
 30
57.8303
 10
-6.24822
 20
3.5
 30
58.9713
 10
-3.86824
 20
3.5
 30
59.9
 10
1.59872e-14
 20
3.5
 30
59.9
  0
SPLINE
  5
A5E
330
A02
100
AcDbEntity
  8
Solid
100
AcDbSpline
210
0
220
0
230
1
 70
8
 71
3
 72
11
 73
7
 74
0
 40
0
 40
0
 40
0
 40
0
 40
0.40397
 40
0.40397
 40
0.40397
 40
1
 40
1
 40
1
 40
1
 10
1.59872e-14
 20
3.5
 30
59.9
 10
3.86824
 20
3.5
 30
59.9
 10
6.24822
 20
3.5
 30
58.9713
 10
8.36576
 20
3.5
 30
57.8303
 10
11.49
 20
3.5
 30
56.1469
 10
14.043
 20
3.5
 30
54.0013
 10
20
 20
3.5
 30
53.5
  0
ARC
  5
A5F
330
A02
100
AcDbEntity
  8
Solid
100
AcDbCircle
 10
0
 20
-10
 30
-36.5
 40
5.60448
100
AcDbArc
 50
180
 51
180
  0
ARC
  5
A60
330
A02
100
AcDbEntity
  8
Solid
100
AcDbCircle
 10
0
 20
-10
 30
-36.5
 40
0
100
AcDbArc
 50
0
 51
0
  0
SPLINE
  5
A61
330
A02
100
AcDbEntity
  8
Solid
100
AcDbSpline
210
0
220
0
230
1
 70
8
 71
3
 72
11
 73
7
 74
0
 40
0
 40
0
 40
0
 40
0
 40
0.00369669
 40
0.00369669
 40
0.00369669
 40
0.00739337
 40
0.00739337
 40
0.00739337
 40
0.00739337
 10
5.60448
 20
-10
 30
-37.222
 10
5.76592
 20
-10
 30
-35.9801
 10
6.14662
 20
-10
 30
-34.8082
 10
6.74659
 20
-10
 30
-33.7063
 10
7.34615
 20
-10
 30
-32.6113
 10
8.13052
 20
-10
 30
-31.652
 10
9.09395
 20
-10
 30
-30.8418
  0
ARC
  5
A62
330
A02
100
AcDbEntity
  8
Solid
100
AcDbCircle
 10
-7.34788e-15
 20
-10
 30
-20
 40
9.09395
100
AcDbArc
 50
0
 51
0
  0
LINE
  5
A63
330
A02
100
AcDbEntity
  8
Solid
100
AcDbLine
 10
14.1508
 20
-10
 30
-20
 11
14.1508
 21
-10
 31
20
  0
ARC
  5
A64
330
A02
100
AcDbEntity
  8
Solid
100
AcDbCircle
 10
0
 20
-10
 30
20
 40
14.1508
100
AcDbArc
 50
0
 51
0
  0
SPLINE
  5
A65
330
A02
100
AcDbEntity
  8
Solid
100
AcDbSpline
210
0
220
0
230
1
 70
8
 71
3
 72
17
 73
13
 74
0
 40
0
 40
0
 40
0
 40
0
 40
0.00185032
 40
0.00185032
 40
0.00185032
 40
0.00370064
 40
0.00370064
 40
0.00370064
 40
0.00555096
 40
0.00555096
 40
0.00555096
 40
0.00740128
 40
0.00740128
 40
0.00740128
 40
0.00740128
 10
9.09395
 20
-10
 30
30.8418
 10
8.61491
 20
-10
 30
31.2442
 10
8.17995
 20
-10
 30
31.6839
 10
7.78907
 20
-10
 30
32.1612
 10
7.3986
 20
-10
 30
32.637
 10
7.04853
 20
-10
 30
33.1544
 10
6.74868
 20
-10
 30
33.7025
 10
6.45022
 20
-10
 30
34.2486
 10
6.20542
 20
-10
 30
34.8152
 10
6.01429
 20
-10
 30
35.4025
 10
5.82199
 20
-10
 30
35.9923
 10
5.68539
 20
-10
 30
36.5988
 10
5.60448
 20
-10
 30
37.222
  0
ARC
  5
A66
330
A02
100
AcDbEntity
  8
Solid
100
AcDbCircle
 10
-1.34099e-14
 20
-10
 30
36.5
 40
5.60448
100
AcDbArc
 50
180
 51
0
  0
SPLINE
  5
A67
330
A02
100
AcDbEntity
  8
Solid
100
AcDbSpline
210
0
220
0
230
1
 70
8
 71
3
 72
17
 73
13
 74
0
 40
0
 40
0
 40
0
 40
0
 40
0.00185032
 40
0.00185032
 40
0.00185032
 40
0.00370064
 40
0.00370064
 40
0.00370064
 40
0.00555096
 40
0.00555096
 40
0.00555096
 40
0.00740128
 40
0.00740128
 40
0.00740128
 40
0.00740128
 10
-5.60448
 20
-10
 30
37.222
 10
-5.68481
 20
-10
 30
36.6015
 10
-5.82044
 20
-10
 30
35.9981
 10
-6.01138
 20
-10
 30
35.4115
 10
-6.20134
 20
-10
 30
34.826
 10
-6.44819
 20
-10
 30
34.2521
 10
-6.74789
 20
-10
 30
33.7039
 10
-7.04665
 20
-10
 30
33.158
 10
-7.39172
 20
-10
 30
32.6462
 10
-7.7831
 20
-10
 30
32.1684
 10
-8.17598
 20
-10
 30
31.6883
 10
-8.61293
 20
-10
 30
31.2461
 10
-9.09395
 20
-10
 30
30.8418
  0
ARC
  5
A68
330
A02
100
AcDbEntity
  8
Solid
100
AcDbCircle
 10
0
 20
-10
 30
20
 40
9.09395
100
AcDbArc
 50
180
 51
180
  0
LINE
  5
A69
330
A02
100
AcDbEntity
  8
Solid
100
AcDbLine
 10
-14.1508
 20
-10
 30
20
 11
-14.1508
 21
-10
 31
-20
  0
ARC
  5
A6A
330
A02
100
AcDbEntity
  8
Solid
100
AcDbCircle
 10
-7.34788e-15
 20
-10
 30
-20
 40
14.1508
100
AcDbArc
 50
180
 51
180
  0
SPLINE
  5
A6B
330
A02
100
AcDbEntity
  8
Solid
100
AcDbSpline
210
0
220
0
230
1
 70
8
 71
3
 72
11
 73
7
 74
0
 40
1.73472e-18
 40
1.73472e-18
 40
1.73472e-18
 40
1.73472e-18
 40
0.00369743
 40
0.00369743
 40
0.00369743
 40
0.00739486
 40
0.00739486
 40
0.00739486
 40
0.00739486
 10
-9.09395
 20
-10
 30
-30.8418
 10
-8.13601
 20
-10
 30
-31.647
 10
-7.35341
 20
-10
 30
-32.6012
 10
-6.7497
 20
-10
 30
-33.7006
 10
-6.15175
 20
-10
 30
-34.7951
 10
-5.76682
 20
-10
 30
-35.9736
 10
-5.60448
 20
-10
 30
-37.222
  0
ARC
  5
A6C
330
A02
100
AcDbEntity
  8
Solid
100
AcDbCircle
 10
-7.34788e-15
 20
-10
 30
-20
 40
9.09395
100
AcDbArc
 50
0
 51
0
  0
SPLINE
  5
A6D
330
A02
100
AcDbEntity
  8
Solid
100
AcDbSpline
210
0
220
0
230
1
 70
8
 71
1
 72
4
 73
2
 74
0
 40
0
 40
0
 40
0.0100064
 40
0.0100064
 10
9.09395
 20
-10
 30
-30.8418
 10
9.37988
 20
0
 30
-31.0575
  0
ARC
  5
A6E
330
A02
100
AcDbEntity
  8
Solid
100
AcDbCircle
 10
-7.34788e-15
 20
0
 30
-20
 40
9.37988
100
AcDbArc
 50
0
 51
0
  0
LINE
  5
A6F
330
A02
100
AcDbEntity
  8
Solid
100
AcDbLine
 10
14.1508
 20
-10
 30
-20
 11
14.5
 21
0
 31
-20
  0
LINE
  5
A70
330
A02
100
AcDbEntity
  8
Solid
100
AcDbLine
 10
14.5
 20
0
 30
-20
 11
14.5
 21
0
 31
20
  0
LINE
  5
A71
330
A02
100
AcDbEntity
  8
Solid
100
AcDbLine
 10
14.1508
 20
-10
 30
20
 11
14.5
 21
-6.20299e-17
 31
20
  0
LINE
  5
A72
330
A02
100
AcDbEntity
  8
Solid
100
AcDbLine
 10
14.1508
 20
-10
 30
-20
 11
14.1508
 21
-10
 31
20
  0
LINE
  5
A73
330
A02
100
AcDbEntity
  8
Solid
100
AcDbLine
 10
14.1508
 20
-10
 30
-20
 11
14.5
 21
0
 31
-20
  0
ARC
  5
A74
330
A02
100
AcDbEntity
  8
Solid
100
AcDbCircle
 10
0
 20
0
 30
20
 40
14.5
100
AcDbArc
 50
0
 51
0
  0
SPLINE
  5
A75
330
A02
100
AcDbEntity
  8
Solid
100
AcDbSpline
210
0
220
0
230
1
 70
8
 71
1
 72
4
 73
2
 74
0
 40
0
 40
0
 40
0.0100064
 40
0.0100064
 10
9.37988
 20
0
 30
31.0575
 10
9.09395
 20
-10
 30
30.8418
  0
ARC
  5
A76
330
A02
100
AcDbEntity
  8
Solid
100
AcDbCircle
 10
0
 20
-10
 30
20
 40
14.1508
100
AcDbArc
 50
0
 51
0
  0
LINE
  5
A77
330
A02
100
AcDbEntity
  8
Solid
100
AcDbLine
 10
14.1508
 20
-10
 30
20
 11
14.5
 21
-6.20299e-17
 31
20
  0
ARC
  5
A78
330
A02
100
AcDbEntity
  8
Solid
100
AcDbCircle
 10
-1.34099e-14
 20
0
 30
36.5
 40
5.94407
100
AcDbArc
 50
180
 51
0
  0
SPLINE
  5
A79
330
A02
100
AcDbEntity
  8
Solid
100
AcDbSpline
210
0
220
0
230
1
 70
8
 71
1
 72
4
 73
2
 74
0
 40
0
 40
0
 40
0.0100062
 40
0.0100062
 10
-5.94407
 20
0
 30
37.3173
 10
-5.60448
 20
-10
 30
37.222
  0
ARC
  5
A7A
330
A02
100
AcDbEntity
  8
Solid
100
AcDbCircle
 10
-1.34099e-14
 20
-10
 30
36.5
 40
5.60448
100
AcDbArc
 50
180
 51
0
  0
SPLINE
  5
A7B
330
A02
100
AcDbEntity
  8
Solid
100
AcDbSpline
210
0
220
0
230
1
 70
8
 71
1
 72
4
 73
2
 74
0
 40
0
 40
0
 40
0.0100062
 40
0.0100062
 10
5.60448
 20
-10
 30
37.222
 10
5.94407
 20
0
 30
37.3173
  0
ARC
  5
A7C
330
A02
100
AcDbEntity
  8
Solid
100
AcDbCircle
 10
0
 20
-10
 30
20
 40
9.09395
100
AcDbArc
 50
180
 51
180
  0
SPLINE
  5
A7D
330
A02
100
AcDbEntity
  8
Solid
100
AcDbSpline
210
0
220
0
230
1
 70
8
 71
1
 72
4
 73
2
 74
0
 40
0
 40
0
 40
0.0100064
 40
0.0100064
 10
-9.09395
 20
-10
 30
30.8418
 10
-9.37988
 20
0
 30
31.0575
  0
ARC
  5
A7E
330
A02
100
AcDbEntity
  8
Solid
100
AcDbCircle
 10
0
 20
0
 30
20
 40
9.37988
100
AcDbArc
 50
180
 51
180
  0
LINE
  5
A7F
330
A02
100
AcDbEntity
  8
Solid
100
AcDbLine
 10
-14.1508
 20
-10
 30
20
 11
-14.5
 21
-1.2406e-16
 31
20
  0
LINE
  5
A80
330
A02
100
AcDbEntity
  8
Solid
100
AcDbLine
 10
-14.5
 20
0
 30
20
 11
-14.5
 21
0
 31
-20
  0
LINE
  5
A81
330
A02
100
AcDbEntity
  8
Solid
100
AcDbLine
 10
-14.1508
 20
-10
 30
-20
 11
-14.5
 21
0
 31
-20
  0
LINE
  5
A82
330
A02
100
AcDbEntity
  8
Solid
100
AcDbLine
 10
-14.1508
 20
-10
 30
20
 11
-14.1508
 21
-10
 31
-20
  0
LINE
  5
A83
330
A02
100
AcDbEntity
  8
Solid
100
AcDbLine
 10
-14.1508
 20
-10
 30
20
 11
-14.5
 21
-1.2406e-16
 31
20
  0
ARC
  5
A84
330
A02
100
AcDbEntity
  8
Solid
100
AcDbCircle
 10
-7.34788e-15
 20
0
 30
-20
 40
14.5
100
AcDbArc
 50
180
 51
180
  0
SPLINE
  5
A85
330
A02
100
AcDbEntity
  8
Solid
100
AcDbSpline
210
0
220
0
230
1
 70
8
 71
1
 72
4
 73
2
 74
0
 40
7.28629e-20
 40
7.28629e-20
 40
0.0100064
 40
0.0100064
 10
-9.37988
 20
0
 30
-31.0575
 10
-9.09395
 20
-10
 30
-30.8418
  0
ARC
  5
A86
330
A02
100
AcDbEntity
  8
Solid
100
AcDbCircle
 10
-7.34788e-15
 20
-10
 30
-20
 40
14.1508
100
AcDbArc
 50
180
 51
180
  0
LINE
  5
A87
330
A02
100
AcDbEntity
  8
Solid
100
AcDbLine
 10
-14.1508
 20
-10
 30
-20
 11
-14.5
 21
0
 31
-20
  0
LINE
  5
A88
330
A02
100
AcDbEntity
  8
Solid
100
AcDbLine
 10
0
 20
-10
 30
-42.1508
 11
0
 21
0
 31
-42.5
  0
ARC
  5
A89
330
A02
100
AcDbEntity
  8
Solid
100
AcDbCircle
 10
0
 20
-10
 30
-36.5
 40
5.60448
100
AcDbArc
 50
180
 51
180
  0
SPLINE
  5
A8A
330
A02
100
AcDbEntity
  8
Solid
100
AcDbSpline
210
0
220
0
230
1
 70
8
 71
1
 72
4
 73
2
 74
0
 40
0
 40
0
 40
0.0100062
 40
0.0100062
 10
-5.60448
 20
-10
 30
-37.222
 10
-5.94407
 20
0
 30
-37.3173
  0
ARC
  5
A8B
330
A02
100
AcDbEntity
  8
Solid
100
AcDbCircle
 10
0
 20
0
 30
-36.5
 40
5.94407
100
AcDbArc
 50
180
 51
180
  0
SPLINE
  5
A8C
330
A02
100
AcDbEntity
  8
Solid
100
AcDbSpline
210
0
220
0
230
1
 70
8
 71
1
 72
4
 73
2
 74
0
 40
0
 40
0
 40
0.0100064
 40
0.0100064
 10
9.09395
 20
-10
 30
-30.8418
 10
9.37988
 20
0
 30
-31.0575
  0
SPLINE
  5
A8D
330
A02
100
AcDbEntity
  8
Solid
100
AcDbSpline
210
0
220
0
230
1
 70
8
 71
2
 72
8
 73
5
 74
0
 40
1.73472e-18
 40
1.73472e-18
 40
1.73472e-18
 40
0.00363079
 40
0.00363079
 40
0.00726157
 40
0.00726157
 40
0.00726157
 10
9.37988
 20
0
 30
-31.0575
 10
7.97383
 20
1.67192e-17
 30
-32.2531
 10
7.08378
 20
0
 30
-33.87
 10
6.1977
 20
0
 30
-35.4891
 10
5.94407
 20
0
 30
-37.3173
  0
SPLINE
  5
A8E
330
A02
100
AcDbEntity
  8
Solid
100
AcDbSpline
210
0
220
0
230
1
 70
8
 71
1
 72
4
 73
2
 74
0
 40
3.32758e-20
 40
3.32758e-20
 40
0.0100062
 40
0.0100062
 10
5.94407
 20
0
 30
-37.3173
 10
5.60448
 20
-10
 30
-37.222
  0
SPLINE
  5
A8F
330
A02
100
AcDbEntity
  8
Solid
100
AcDbSpline
210
0
220
0
230
1
 70
8
 71
3
 72
11
 73
7
 74
0
 40
0
 40
0
 40
0
 40
0
 40
0.00369669
 40
0.00369669
 40
0.00369669
 40
0.00739337
 40
0.00739337
 40
0.00739337
 40
0.00739337
 10
5.60448
 20
-10
 30
-37.222
 10
5.76592
 20
-10
 30
-35.9801
 10
6.14662
 20
-10
 30
-34.8082
 10
6.74659
 20
-10
 30
-33.7063
 10
7.34615
 20
-10
 30
-32.6113
 10
8.13052
 20
-10
 30
-31.652
 10
9.09395
 20
-10
 30
-30.8418
  0
SPLINE
  5
A90
330
A02
100
AcDbEntity
  8
Solid
100
AcDbSpline
210
0
220
0
230
1
 70
8
 71
1
 72
4
 73
2
 74
0
 40
0
 40
0
 40
0.0100062
 40
0.0100062
 10
-5.60448
 20
-10
 30
-37.222
 10
-5.94407
 20
0
 30
-37.3173
  0
SPLINE
  5
A91
330
A02
100
AcDbEntity
  8
Solid
100
AcDbSpline
210
0
220
0
230
1
 70
8
 71
2
 72
8
 73
5
 74
0
 40
0
 40
0
 40
0
 40
0.00363079
 40
0.00363079
 40
0.00726157
 40
0.00726157
 40
0.00726157
 10
-5.94407
 20
0
 30
-37.3173
 10
-6.1977
 20
1.6786e-17
 30
-35.4891
 10
-7.08378
 20
0
 30
-33.87
 10
-7.97383
 20
0
 30
-32.2531
 10
-9.37988
 20
0
 30
-31.0575
  0
SPLINE
  5
A92
330
A02
100
AcDbEntity
  8
Solid
100
AcDbSpline
210
0
220
0
230
1
 70
8
 71
1
 72
4
 73
2
 74
0
 40
7.28629e-20
 40
7.28629e-20
 40
0.0100064
 40
0.0100064
 10
-9.37988
 20
0
 30
-31.0575
 10
-9.09395
 20
-10
 30
-30.8418
  0
SPLINE
  5
A93
330
A02
100
AcDbEntity
  8
Solid
100
AcDbSpline
210
0
220
0
230
1
 70
8
 71
3
 72
11
 73
7
 74
0
 40
1.73472e-18
 40
1.73472e-18
 40
1.73472e-18
 40
1.73472e-18
 40
0.00369743
 40
0.00369743
 40
0.00369743
 40
0.00739486
 40
0.00739486
 40
0.00739486
 40
0.00739486
 10
-9.09395
 20
-10
 30
-30.8418
 10
-8.13601
 20
-10
 30
-31.647
 10
-7.35341
 20
-10
 30
-32.6012
 10
-6.7497
 20
-10
 30
-33.7006
 10
-6.15175
 20
-10
 30
-34.7951
 10
-5.76682
 20
-10
 30
-35.9736
 10
-5.60448
 20
-10
 30
-37.222
  0
SPLINE
  5
A94
330
A02
100
AcDbEntity
  8
Solid
100
AcDbSpline
210
0
220
0
230
1
 70
8
 71
1
 72
4
 73
2
 74
0
 40
0
 40
0
 40
0.0100064
 40
0.0100064
 10
-9.09395
 20
-10
 30
30.8418
 10
-9.37988
 20
0
 30
31.0575
  0
SPLINE
  5
A95
330
A02
100
AcDbEntity
  8
Solid
100
AcDbSpline
210
0
220
0
230
1
 70
8
 71
2
 72
8
 73
5
 74
0
 40
0
 40
0
 40
0
 40
0.00363079
 40
0.00363079
 40
0.00726157
 40
0.00726157
 40
0.00726157
 10
-9.37988
 20
0
 30
31.0575
 10
-7.97383
 20
-1.04183e-16
 30
32.2531
 10
-7.08378
 20
0
 30
33.87
 10
-6.1977
 20
0
 30
35.4891
 10
-5.94407
 20
0
 30
37.3173
  0
SPLINE
  5
A96
330
A02
100
AcDbEntity
  8
Solid
100
AcDbSpline
210
0
220
0
230
1
 70
8
 71
1
 72
4
 73
2
 74
0
 40
0
 40
0
 40
0.0100062
 40
0.0100062
 10
-5.94407
 20
0
 30
37.3173
 10
-5.60448
 20
-10
 30
37.222
  0
SPLINE
  5
A97
330
A02
100
AcDbEntity
  8
Solid
100
AcDbSpline
210
0
220
0
230
1
 70
8
 71
3
 72
17
 73
13
 74
0
 40
0
 40
0
 40
0
 40
0
 40
0.00185032
 40
0.00185032
 40
0.00185032
 40
0.00370064
 40
0.00370064
 40
0.00370064
 40
0.00555096
 40
0.00555096
 40
0.00555096
 40
0.00740128
 40
0.00740128
 40
0.00740128
 40
0.00740128
 10
-5.60448
 20
-10
 30
37.222
 10
-5.68481
 20
-10
 30
36.6015
 10
-5.82044
 20
-10
 30
35.9981
 10
-6.01138
 20
-10
 30
35.4115
 10
-6.20134
 20
-10
 30
34.826
 10
-6.44819
 20
-10
 30
34.2521
 10
-6.74789
 20
-10
 30
33.7039
 10
-7.04665
 20
-10
 30
33.158
 10
-7.39172
 20
-10
 30
32.6462
 10
-7.7831
 20
-10
 30
32.1684
 10
-8.17598
 20
-10
 30
31.6883
 10
-8.61293
 20
-10
 30
31.2461
 10
-9.09395
 20
-10
 30
30.8418
  0
SPLINE
  5
A98
330
A02
100
AcDbEntity
  8
Solid
100
AcDbSpline
210
0
220
0
230
1
 70
8
 71
1
 72
4
 73
2
 74
0
 40
0
 40
0
 40
0.0100062
 40
0.0100062
 10
5.60448
 20
-10
 30
37.222
 10
5.94407
 20
0
 30
37.3173
  0
SPLINE
  5
A99
330
A02
100
AcDbEntity
  8
Solid
100
AcDbSpline
210
0
220
0
230
1
 70
8
 71
2
 72
8
 73
5
 74
0
 40
0
 40
0
 40
0
 40
0.00363079
 40
0.00363079
 40
0.00726157
 40
0.00726157
 40
0.00726157
 10
5.94407
 20
0
 30
37.3173
 10
6.1977
 20
-2.01432e-17
 30
35.4891
 10
7.08378
 20
0
 30
33.87
 10
7.97383
 20
0
 30
32.2531
 10
9.37988
 20
0
 30
31.0575
  0
SPLINE
  5
A9A
330
A02
100
AcDbEntity
  8
Solid
100
AcDbSpline
210
0
220
0
230
1
 70
8
 71
1
 72
4
 73
2
 74
0
 40
0
 40
0
 40
0.0100064
 40
0.0100064
 10
9.37988
 20
0
 30
31.0575
 10
9.09395
 20
-10
 30
30.8418
  0
SPLINE
  5
A9B
330
A02
100
AcDbEntity
  8
Solid
100
AcDbSpline
210
0
220
0
230
1
 70
8
 71
3
 72
17
 73
13
 74
0
 40
0
 40
0
 40
0
 40
0
 40
0.00185032
 40
0.00185032
 40
0.00185032
 40
0.00370064
 40
0.00370064
 40
0.00370064
 40
0.00555096
 40
0.00555096
 40
0.00555096
 40
0.00740128
 40
0.00740128
 40
0.00740128
 40
0.00740128
 10
9.09395
 20
-10
 30
30.8418
 10
8.61491
 20
-10
 30
31.2442
 10
8.17995
 20
-10
 30
31.6839
 10
7.78907
 20
-10
 30
32.1612
 10
7.3986
 20
-10
 30
32.637
 10
7.04853
 20
-10
 30
33.1544
 10
6.74868
 20
-10
 30
33.7025
 10
6.45022
 20
-10
 30
34.2486
 10
6.20542
 20
-10
 30
34.8152
 10
6.01429
 20
-10
 30
35.4025
 10
5.82199
 20
-10
 30
35.9923
 10
5.68539
 20
-10
 30
36.5988
 10
5.60448
 20
-10
 30
37.222
  0
SPLINE
  5
A9C
330
A02
100
AcDbEntity
  8
Solid
100
AcDbSpline
210
0
220
0
230
1
 70
8
 71
3
 72
11
 73
7
 74
0
 40
0
 40
0
 40
0
 40
0
 40
0.59603
 40
0.59603
 40
0.59603
 40
1
 40
1
 40
1
 40
1
 10
20
 20
3.5
 30
-53.5
 10
14.043
 20
3.5
 30
-54.0013
 10
11.49
 20
3.5
 30
-56.1469
 10
8.36576
 20
3.5
 30
-57.8303
 10
6.24822
 20
3.5
 30
-58.9713
 10
3.86824
 20
3.5
 30
-59.9
 10
8.88178e-16
 20
3.5
 30
-59.9
  0
LINE
  5
A9D
330
A02
100
AcDbEntity
  8
Solid
100
AcDbLine
 10
20
 20
3.5
 30
-53.5
 11
20
 21
0
 31
-53.5
  0
SPLINE
  5
A9E
330
A02
100
AcDbEntity
  8
Solid
100
AcDbSpline
210
0
220
0
230
1
 70
8
 71
3
 72
11
 73
7
 74
0
 40
0
 40
0
 40
0
 40
0
 40
0.59603
 40
0.59603
 40
0.59603
 40
1
 40
1
 40
1
 40
1
 10
20
 20
0
 30
-53.5
 10
14.043
 20
0
 30
-54.0013
 10
11.49
 20
0
 30
-56.1469
 10
8.36576
 20
0
 30
-57.8303
 10
6.24822
 20
0
 30
-58.9713
 10
3.86824
 20
0
 30
-59.9
 10
8.88178e-16
 20
0
 30
-59.9
  0
LINE
  5
A9F
330
A02
100
AcDbEntity
  8
Solid
100
AcDbLine
 10
1.30817e-15
 20
0
 30
-59.9
 11
1.30817e-15
 21
3.5
 31
-59.9
  0
SPLINE
  5
AA0
330
A02
100
AcDbEntity
  8
Solid
100
AcDbSpline
210
0
220
0
230
1
 70
8
 71
3
 72
11
 73
7
 74
0
 40
0
 40
0
 40
0
 40
0
 40
0.40397
 40
0.40397
 40
0.40397
 40
1
 40
1
 40
1
 40
1
 10
1.77636e-15
 20
3.5
 30
-59.9
 10
-3.86824
 20
3.5
 30
-59.9
 10
-6.24822
 20
3.5
 30
-58.9713
 10
-8.36576
 20
3.5
 30
-57.8303
 10
-11.49
 20
3.5
 30
-56.1469
 10
-14.043
 20
3.5
 30
-54.0013
 10
-20
 20
3.5
 30
-53.5
  0
LINE
  5
AA1
330
A02
100
AcDbEntity
  8
Solid
100
AcDbLine
 10
1.30817e-15
 20
0
 30
-59.9
 11
1.30817e-15
 21
3.5
 31
-59.9
  0
SPLINE
  5
AA2
330
A02
100
AcDbEntity
  8
Solid
100
AcDbSpline
210
0
220
0
230
1
 70
8
 71
3
 72
11
 73
7
 74
0
 40
0
 40
0
 40
0
 40
0
 40
0.40397
 40
0.40397
 40
0.40397
 40
1
 40
1
 40
1
 40
1
 10
1.77636e-15
 20
0
 30
-59.9
 10
-3.86824
 20
0
 30
-59.9
 10
-6.24822
 20
0
 30
-58.9713
 10
-8.36576
 20
0
 30
-57.8303
 10
-11.49
 20
0
 30
-56.1469
 10
-14.043
 20
0
 30
-54.0013
 10
-20
 20
0
 30
-53.5
  0
LINE
  5
AA3
330
A02
100
AcDbEntity
  8
Solid
100
AcDbLine
 10
-20
 20
3.5
 30
-53.5
 11
-20
 21
0
 31
-53.5
  0
SPLINE
  5
AA4
330
A02
100
AcDbEntity
  8
Solid
100
AcDbSpline
210
0
220
0
230
1
 70
8
 71
3
 72
11
 73
7
 74
0
 40
0
 40
0
 40
0
 40
0
 40
0.40397
 40
0.40397
 40
0.40397
 40
1
 40
1
 40
1
 40
1
 10
1.59872e-14
 20
3.5
 30
59.9
 10
3.86824
 20
3.5
 30
59.9
 10
6.24822
 20
3.5
 30
58.9713
 10
8.36576
 20
3.5
 30
57.8303
 10
11.49
 20
3.5
 30
56.1469
 10
14.043
 20
3.5
 30
54.0013
 10
20
 20
3.5
 30
53.5
  0
LINE
  5
AA5
330
A02
100
AcDbEntity
  8
Solid
100
AcDbLine
 10
1.59794e-14
 20
0
 30
59.9
 11
1.59794e-14
 21
3.5
 31
59.9
  0
SPLINE
  5
AA6
330
A02
100
AcDbEntity
  8
Solid
100
AcDbSpline
210
0
220
0
230
1
 70
8
 71
3
 72
11
 73
7
 74
0
 40
0
 40
0
 40
0
 40
0
 40
0.40397
 40
0.40397
 40
0.40397
 40
1
 40
1
 40
1
 40
1
 10
1.59872e-14
 20
0
 30
59.9
 10
3.86824
 20
0
 30
59.9
 10
6.24822
 20
0
 30
58.9713
 10
8.36576
 20
0
 30
57.8303
 10
11.49
 20
0
 30
56.1469
 10
14.043
 20
0
 30
54.0013
 10
20
 20
0
 30
53.5
  0
LINE
  5
AA7
330
A02
100
AcDbEntity
  8
Solid
100
AcDbLine
 10
20
 20
3.5
 30
53.5
 11
20
 21
0
 31
53.5
  0
SPLINE
  5
AA8
330
A02
100
AcDbEntity
  8
Solid
100
AcDbSpline
210
0
220
0
230
1
 70
8
 71
3
 72
11
 73
7
 74
0
 40
0
 40
0
 40
0
 40
0
 40
0.59603
 40
0.59603
 40
0.59603
 40
1
 40
1
 40
1
 40
1
 10
-20
 20
3.5
 30
53.5
 10
-14.043
 20
3.5
 30
54.0013
 10
-11.49
 20
3.5
 30
56.1469
 10
-8.36576
 20
3.5
 30
57.8303
 10
-6.24822
 20
3.5
 30
58.9713
 10
-3.86824
 20
3.5
 30
59.9
 10
1.59872e-14
 20
3.5
 30
59.9
  0
LINE
  5
AA9
330
A02
100
AcDbEntity
  8
Solid
100
AcDbLine
 10
-20
 20
3.5
 30
53.5
 11
-20
 21
0
 31
53.5
  0
SPLINE
  5
AAA
330
A02
100
AcDbEntity
  8
Solid
100
AcDbSpline
210
0
220
0
230
1
 70
8
 71
3
 72
11
 73
7
 74
0
 40
0
 40
0
 40
0
 40
0
 40
0.59603
 40
0.59603
 40
0.59603
 40
1
 40
1
 40
1
 40
1
 10
-20
 20
0
 30
53.5
 10
-14.043
 20
0
 30
54.0013
 10
-11.49
 20
0
 30
56.1469
 10
-8.36576
 20
0
 30
57.8303
 10
-6.24822
 20
0
 30
58.9713
 10
-3.86824
 20
0
 30
59.9
 10
1.59872e-14
 20
0
 30
59.9
  0
LINE
  5
AAB
330
A02
100
AcDbEntity
  8
Solid
100
AcDbLine
 10
1.59794e-14
 20
0
 30
59.9
 11
1.59794e-14
 21
3.5
 31
59.9
  0
LINE
  5
AAC
330
A02
100
AcDbEntity
  8
Solid
100
AcDbLine
 10
1.59794e-14
 20
3
 30
57.9
 11
1.59794e-14
 21
3.5
 31
57.9
  0
SPLINE
  5
AAD
330
A02
100
AcDbEntity
  8
Solid
100
AcDbSpline
210
0
220
0
230
1
 70
8
 71
3
 72
35
 73
31
 74
0
 40
0
 40
0
 40
0
 40
0
 40
0.125
 40
0.125
 40
0.125
 40
0.25
 40
0.25
 40
0.25
 40
0.3125
 40
0.3125
 40
0.3125
 40
0.375
 40
0.375
 40
0.375
 40
0.4375
 40
0.4375
 40
0.4375
 40
0.5
 40
0.5
 40
0.5
 40
0.5625
 40
0.5625
 40
0.5625
 40
0.625
 40
0.625
 40
0.625
 40
0.75
 40
0.75
 40
0.75
 40
1
 40
1
 40
1
 40
1
 10
1.59872e-14
 20
3
 30
57.9
 10
0.85473
 20
3
 30
57.9
 10
1.65665
 20
3
 30
57.8501
 10
2.40575
 20
3
 30
57.7504
 10
3.23276
 20
3
 30
57.6402
 10
4.01613
 20
3
 30
57.4671
 10
4.75585
 20
3
 30
57.2308
 10
5.13542
 20
3
 30
57.1096
 10
5.5152
 20
3
 30
56.9686
 10
5.89519
 20
3
 30
56.8079
 10
6.24531
 20
3
 30
56.6597
 10
6.60985
 20
3
 30
56.4887
 10
6.98881
 20
3
 30
56.2948
 10
7.30466
 20
3
 30
56.1331
 10
7.65833
 20
3
 30
55.9411
 10
8.0498
 20
3
 30
55.7188
 10
8.25431
 20
3
 30
55.6027
 10
8.60279
 20
3
 30
55.4007
 10
9.09523
 20
3
 30
55.1129
 10
9.5229
 20
3
 30
54.8629
 10
9.87178
 20
3
 30
54.6617
 10
10.1419
 20
3
 30
54.5093
 10
10.5266
 20
3
 30
54.2921
 10
10.8802
 20
3
 30
54.1
 10
11.2027
 20
3
 30
53.933
 10
11.9473
 20
3
 30
53.5474
 10
12.6738
 20
3
 30
53.2164
 10
13.3855
 20
3
 30
52.9386
 10
14.8233
 20
3
 30
52.3776
 10
16.3615
 20
3
 30
51.972
 10
18
 20
3
 30
51.7219
  0
LINE
  5
AAE
330
A02
100
AcDbEntity
  8
Solid
100
AcDbLine
 10
18
 20
3
 30
51.7219
 11
18
 21
3.5
 31
51.7219
  0
SPLINE
  5
AAF
330
A02
100
AcDbEntity
  8
Solid
100
AcDbSpline
210
0
220
0
230
1
 70
8
 71
3
 72
23
 73
19
 74
0
 40
0
 40
0
 40
0
 40
0
 40
0.25
 40
0.25
 40
0.25
 40
0.375
 40
0.375
 40
0.375
 40
0.5
 40
0.5
 40
0.5
 40
0.625
 40
0.625
 40
0.625
 40
0.75
 40
0.75
 40
0.75
 40
1
 40
1
 40
1
 40
1
 10
1.59872e-14
 20
3.5
 30
57.9
 10
1.61884
 20
3.5
 30
57.9
 10
3.2112
 20
3.5
 30
57.724
 10
4.75585
 20
3.5
 30
57.2308
 10
5.53078
 20
3.5
 30
56.9842
 10
6.2739
 20
3.5
 30
56.6616
 10
6.98881
 20
3.5
 30
56.2948
 10
7.70517
 20
3.5
 30
55.9282
 10
8.39962
 20
3.5
 30
55.5194
 10
9.09523
 20
3.5
 30
55.1129
 10
9.79083
 20
3.5
 30
54.7063
 10
10.4882
 20
3.5
 30
54.3031
 10
11.2027
 20
3.5
 30
53.933
 10
11.917
 20
3.5
 30
53.5611
 10
12.6446
 20
3.5
 30
53.2297
 10
13.3855
 20
3.5
 30
52.9386
 10
14.868
 20
3.5
 30
52.3601
 10
16.4094
 20
3.5
 30
51.9647
 10
18
 20
3.5
 30
51.7219
  0
LINE
  5
AB0
330
A02
100
AcDbEntity
  8
Solid
100
AcDbLine
 10
-18
 20
3
 30
51.7219
 11
-18
 21
3.5
 31
51.7219
  0
SPLINE
  5
AB1
330
A02
100
AcDbEntity
  8
Solid
100
AcDbSpline
210
0
220
0
230
1
 70
8
 71
2
 72
26
 73
23
 74
0
 40
0
 40
0
 40
0
 40
0.125
 40
0.125
 40
0.25
 40
0.25
 40
0.375
 40
0.375
 40
0.4375
 40
0.4375
 40
0.5
 40
0.5
 40
0.5625
 40
0.5625
 40
0.625
 40
0.625
 40
0.6875
 40
0.6875
 40
0.75
 40
0.75
 40
0.875
 40
0.875
 40
1
 40
1
 40
1
 10
-18
 20
3
 30
51.7219
 10
-16.7759
 20
3
 30
51.9087
 10
-15.6449
 20
3
 30
52.2052
 10
-14.478
 20
3
 30
52.5111
 10
-13.3691
 20
3
 30
52.9451
 10
-12.2975
 20
3
 30
53.3644
 10
-11.176
 20
3
 30
53.9469
 10
-10.6918
 20
3
 30
54.1983
 10
-10.1139
 20
3
 30
54.5251
 10
-9.71484
 20
3
 30
54.7507
 10
-9.06629
 20
3
 30
55.1298
 10
-8.33933
 20
3
 30
55.5547
 10
-8.01951
 20
3
 30
55.736
 10
-7.43147
 20
3
 30
56.0693
 10
-6.95598
 20
3
 30
56.3115
 10
-6.38603
 20
3
 30
56.6019
 10
-5.85973
 20
3
 30
56.8228
 10
-5.2965
 20
3
 30
57.0593
 10
-4.73534
 20
3
 30
57.2374
 10
-3.62994
 20
3
 30
57.5882
 10
-2.40758
 20
3
 30
57.7506
 10
-1.28231
 20
3
 30
57.9
 10
1.59872e-14
 20
3
 30
57.9
  0
LINE
  5
AB2
330
A02
100
AcDbEntity
  8
Solid
100
AcDbLine
 10
1.59794e-14
 20
3
 30
57.9
 11
1.59794e-14
 21
3.5
 31
57.9
  0
SPLINE
  5
AB3
330
A02
100
AcDbEntity
  8
Solid
100
AcDbSpline
210
0
220
0
230
1
 70
8
 71
3
 72
26
 73
22
 74
0
 40
0
 40
0
 40
0
 40
0
 40
0.25
 40
0.25
 40
0.25
 40
0.375
 40
0.375
 40
0.375
 40
0.5
 40
0.5
 40
0.5
 40
0.625
 40
0.625
 40
0.625
 40
0.75
 40
0.75
 40
0.75
 40
0.875
 40
0.875
 40
0.875
 40
1
 40
1
 40
1
 40
1
 10
-18
 20
3.5
 30
51.7219
 10
-16.4053
 20
3.5
 30
51.9643
 10
-14.8583
 20
3.5
 30
52.3611
 10
-13.3691
 20
3.5
 30
52.9451
 10
-12.6234
 20
3.5
 30
53.2389
 10
-11.8924
 20
3.5
 30
53.5728
 10
-11.176
 20
3.5
 30
53.9469
 10
-10.4604
 20
3.5
 30
54.3185
 10
-9.76258
 20
3.5
 30
54.7227
 10
-9.06629
 20
3.5
 30
55.1298
 10
-8.36999
 20
3.5
 30
55.5368
 10
-7.6746
 20
3.5
 30
55.9455
 10
-6.95598
 20
3.5
 30
56.3115
 10
-6.23634
 20
3.5
 30
56.6792
 10
-5.49295
 20
3.5
 30
56.998
 10
-4.73534
 20
3.5
 30
57.2374
 10
-3.97635
 20
3.5
 30
57.4762
 10
-3.20043
 20
3.5
 30
57.6473
 10
-2.40758
 20
3.5
 30
57.7506
 10
-1.61521
 20
3.5
 30
57.8558
 10
-0.806369
 20
3.5
 30
57.9
 10
1.59872e-14
 20
3.5
 30
57.9
  0
LINE
  5
AB4
330
A02
100
AcDbEntity
  8
Solid
100
AcDbLine
 10
-18
 20
3.5
 30
-51.7219
 11
-18
 21
3.5
 31
51.7219
  0
LINE
  5
AB5
330
A02
100
AcDbEntity
  8
Solid
100
AcDbLine
 10
-18
 20
3
 30
51.7219
 11
-18
 21
3.5
 31
51.7219
  0
LINE
  5
AB6
330
A02
100
AcDbEntity
  8
Solid
100
AcDbLine
 10
-18
 20
3
 30
-51.7219
 11
-18
 21
3
 31
51.7219
  0
LINE
  5
AB7
330
A02
100
AcDbEntity
  8
Solid
100
AcDbLine
 10
-18
 20
3
 30
-51.7219
 11
-18
 21
3.5
 31
-51.7219
  0
LINE
  5
AB8
330
A02
100
AcDbEntity
  8
Solid
100
AcDbLine
 10
-1.30817e-15
 20
3
 30
-57.9
 11
-1.30817e-15
 21
3.5
 31
-57.9
  0
SPLINE
  5
AB9
330
A02
100
AcDbEntity
  8
Solid
100
AcDbSpline
210
0
220
0
230
1
 70
8
 71
3
 72
35
 73
31
 74
0
 40
0
 40
0
 40
0
 40
0
 40
0.125
 40
0.125
 40
0.125
 40
0.25
 40
0.25
 40
0.25
 40
0.3125
 40
0.3125
 40
0.3125
 40
0.375
 40
0.375
 40
0.375
 40
0.4375
 40
0.4375
 40
0.4375
 40
0.5
 40
0.5
 40
0.5
 40
0.5625
 40
0.5625
 40
0.5625
 40
0.625
 40
0.625
 40
0.625
 40
0.75
 40
0.75
 40
0.75
 40
1
 40
1
 40
1
 40
1
 10
-1.33227e-15
 20
3
 30
-57.9
 10
-0.85473
 20
3
 30
-57.9
 10
-1.65665
 20
3
 30
-57.8501
 10
-2.40575
 20
3
 30
-57.7504
 10
-3.23276
 20
3
 30
-57.6402
 10
-4.01613
 20
3
 30
-57.4671
 10
-4.75585
 20
3
 30
-57.2308
 10
-5.13542
 20
3
 30
-57.1096
 10
-5.5152
 20
3
 30
-56.9686
 10
-5.89519
 20
3
 30
-56.8079
 10
-6.24531
 20
3
 30
-56.6597
 10
-6.60985
 20
3
 30
-56.4887
 10
-6.98881
 20
3
 30
-56.2948
 10
-7.30466
 20
3
 30
-56.1331
 10
-7.65833
 20
3
 30
-55.9411
 10
-8.0498
 20
3
 30
-55.7188
 10
-8.25431
 20
3
 30
-55.6027
 10
-8.60279
 20
3
 30
-55.4007
 10
-9.09523
 20
3
 30
-55.1129
 10
-9.5229
 20
3
 30
-54.8629
 10
-9.87178
 20
3
 30
-54.6617
 10
-10.1419
 20
3
 30
-54.5093
 10
-10.5266
 20
3
 30
-54.2921
 10
-10.8802
 20
3
 30
-54.1
 10
-11.2027
 20
3
 30
-53.933
 10
-11.9473
 20
3
 30
-53.5474
 10
-12.6738
 20
3
 30
-53.2164
 10
-13.3855
 20
3
 30
-52.9386
 10
-14.8233
 20
3
 30
-52.3776
 10
-16.3615
 20
3
 30
-51.972
 10
-18
 20
3
 30
-51.7219
  0
LINE
  5
ABA
330
A02
100
AcDbEntity
  8
Solid
100
AcDbLine
 10
-18
 20
3
 30
-51.7219
 11
-18
 21
3.5
 31
-51.7219
  0
SPLINE
  5
ABB
330
A02
100
AcDbEntity
  8
Solid
100
AcDbSpline
210
0
220
0
230
1
 70
8
 71
3
 72
23
 73
19
 74
0
 40
0
 40
0
 40
0
 40
0
 40
0.25
 40
0.25
 40
0.25
 40
0.375
 40
0.375
 40
0.375
 40
0.5
 40
0.5
 40
0.5
 40
0.625
 40
0.625
 40
0.625
 40
0.75
 40
0.75
 40
0.75
 40
1
 40
1
 40
1
 40
1
 10
-8.88178e-16
 20
3.5
 30
-57.9
 10
-1.61884
 20
3.5
 30
-57.9
 10
-3.2112
 20
3.5
 30
-57.724
 10
-4.75585
 20
3.5
 30
-57.2308
 10
-5.53078
 20
3.5
 30
-56.9842
 10
-6.2739
 20
3.5
 30
-56.6616
 10
-6.98881
 20
3.5
 30
-56.2948
 10
-7.70517
 20
3.5
 30
-55.9282
 10
-8.39962
 20
3.5
 30
-55.5194
 10
-9.09523
 20
3.5
 30
-55.1129
 10
-9.79083
 20
3.5
 30
-54.7063
 10
-10.4882
 20
3.5
 30
-54.3031
 10
-11.2027
 20
3.5
 30
-53.933
 10
-11.917
 20
3.5
 30
-53.5611
 10
-12.6446
 20
3.5
 30
-53.2297
 10
-13.3855
 20
3.5
 30
-52.9386
 10
-14.868
 20
3.5
 30
-52.3601
 10
-16.4094
 20
3.5
 30
-51.9647
 10
-18
 20
3.5
 30
-51.7219
  0
LINE
  5
ABC
330
A02
100
AcDbEntity
  8
Solid
100
AcDbLine
 10
18
 20
3
 30
-51.7219
 11
18
 21
3.5
 31
-51.7219
  0
SPLINE
  5
ABD
330
A02
100
AcDbEntity
  8
Solid
100
AcDbSpline
210
0
220
0
230
1
 70
8
 71
2
 72
26
 73
23
 74
0
 40
0
 40
0
 40
0
 40
0.125
 40
0.125
 40
0.25
 40
0.25
 40
0.375
 40
0.375
 40
0.4375
 40
0.4375
 40
0.5
 40
0.5
 40
0.5625
 40
0.5625
 40
0.625
 40
0.625
 40
0.6875
 40
0.6875
 40
0.75
 40
0.75
 40
0.875
 40
0.875
 40
1
 40
1
 40
1
 10
18
 20
3
 30
-51.7219
 10
16.7759
 20
3
 30
-51.9087
 10
15.6449
 20
3
 30
-52.2052
 10
14.478
 20
3
 30
-52.5111
 10
13.3691
 20
3
 30
-52.9451
 10
12.2975
 20
3
 30
-53.3644
 10
11.176
 20
3
 30
-53.9469
 10
10.6918
 20
3
 30
-54.1983
 10
10.1139
 20
3
 30
-54.5251
 10
9.71484
 20
3
 30
-54.7507
 10
9.06629
 20
3
 30
-55.1298
 10
8.33933
 20
3
 30
-55.5547
 10
8.01951
 20
3
 30
-55.736
 10
7.43147
 20
3
 30
-56.0693
 10
6.95598
 20
3
 30
-56.3115
 10
6.38603
 20
3
 30
-56.6019
 10
5.85973
 20
3
 30
-56.8228
 10
5.2965
 20
3
 30
-57.0593
 10
4.73534
 20
3
 30
-57.2374
 10
3.62994
 20
3
 30
-57.5882
 10
2.40758
 20
3
 30
-57.7506
 10
1.28231
 20
3
 30
-57.9
 10
-1.33227e-15
 20
3
 30
-57.9
  0
LINE
  5
ABE
330
A02
100
AcDbEntity
  8
Solid
100
AcDbLine
 10
-1.30817e-15
 20
3
 30
-57.9
 11
-1.30817e-15
 21
3.5
 31
-57.9
  0
SPLINE
  5
ABF
330
A02
100
AcDbEntity
  8
Solid
100
AcDbSpline
210
0
220
0
230
1
 70
8
 71
3
 72
26
 73
22
 74
0
 40
0
 40
0
 40
0
 40
0
 40
0.25
 40
0.25
 40
0.25
 40
0.375
 40
0.375
 40
0.375
 40
0.5
 40
0.5
 40
0.5
 40
0.625
 40
0.625
 40
0.625
 40
0.75
 40
0.75
 40
0.75
 40
0.875
 40
0.875
 40
0.875
 40
1
 40
1
 40
1
 40
1
 10
18
 20
3.5
 30
-51.7219
 10
16.4053
 20
3.5
 30
-51.9643
 10
14.8583
 20
3.5
 30
-52.3611
 10
13.3691
 20
3.5
 30
-52.9451
 10
12.6234
 20
3.5
 30
-53.2389
 10
11.8924
 20
3.5
 30
-53.5728
 10
11.176
 20
3.5
 30
-53.9469
 10
10.4604
 20
3.5
 30
-54.3185
 10
9.76258
 20
3.5
 30
-54.7227
 10
9.06629
 20
3.5
 30
-55.1298
 10
8.36999
 20
3.5
 30
-55.5368
 10
7.6746
 20
3.5
 30
-55.9455
 10
6.95598
 20
3.5
 30
-56.3115
 10
6.23634
 20
3.5
 30
-56.6792
 10
5.49295
 20
3.5
 30
-56.998
 10
4.73534
 20
3.5
 30
-57.2374
 10
3.97635
 20
3.5
 30
-57.4762
 10
3.20043
 20
3.5
 30
-57.6473
 10
2.40758
 20
3.5
 30
-57.7506
 10
1.61521
 20
3.5
 30
-57.8558
 10
0.806369
 20
3.5
 30
-57.9
 10
-1.55431e-15
 20
3.5
 30
-57.9
  0
LINE
  5
AC0
330
A02
100
AcDbEntity
  8
Solid
100
AcDbLine
 10
18
 20
3.5
 30
51.7219
 11
18
 21
3.5
 31
-51.7219
  0
LINE
  5
AC1
330
A02
100
AcDbEntity
  8
Solid
100
AcDbLine
 10
18
 20
3
 30
-51.7219
 11
18
 21
3.5
 31
-51.7219
  0
LINE
  5
AC2
330
A02
100
AcDbEntity
  8
Solid
100
AcDbLine
 10
18
 20
3
 30
51.7219
 11
18
 21
3
 31
-51.7219
  0
LINE
  5
AC3
330
A02
100
AcDbEntity
  8
Solid
100
AcDbLine
 10
18
 20
3
 30
51.7219
 11
18
 21
3.5
 31
51.7219
  0
SPLINE
  5
AC4
330
A02
100
AcDbEntity
  8
Solid
100
AcDbSpline
210
0
220
0
230
1
 70
8
 71
3
 72
26
 73
22
 74
0
 40
0
 40
0
 40
0
 40
0
 40
0.120676
 40
0.120676
 40
0.120676
 40
0.241352
 40
0.241352
 40
0.241352
 40
0.362028
 40
0.362028
 40
0.362028
 40
0.482704
 40
0.482704
 40
0.482704
 40
0.603379
 40
0.603379
 40
0.603379
 40
0.724055
 40
0.724055
 40
0.724055
 40
0.965407
 40
0.965407
 40
0.965407
 40
0.965407
 10
-2.22045e-15
 20
3
 30
57.1
 10
0.741996
 20
3
 30
57.1
 10
1.49124
 20
3
 30
57.0603
 10
2.22205
 20
3
 30
56.9676
 10
2.95233
 20
3
 30
56.8773
 10
3.66575
 20
3
 30
56.7266
 10
4.36231
 20
3
 30
56.5156
 10
5.059
 20
3
 30
56.299
 10
5.74154
 20
3
 30
56.024
 10
6.40991
 20
3
 30
55.6906
 10
7.07866
 20
3
 30
55.3603
 10
7.73438
 20
3
 30
54.981
 10
8.40302
 20
3
 30
54.5908
 10
9.07166
 20
3
 30
54.2006
 10
9.75321
 20
3
 30
53.7995
 10
10.455
 20
3
 30
53.423
 10
11.1575
 20
3
 30
53.0434
 10
11.8782
 20
3
 30
52.6979
 10
12.617
 20
3
 30
52.3866
 10
14.0932
 20
3
 30
51.7702
 10
15.6336
 20
3
 30
51.328
 10
17.2
 20
3
 30
51.0444
  0
SPLINE
  5
AC5
330
A02
100
AcDbEntity
  8
Solid
100
AcDbSpline
210
0
220
0
230
1
 70
8
 71
3
 72
26
 73
22
 74
0
 40
0.0345203
 40
0.0345203
 40
0.0345203
 40
0.0345203
 40
0.27589
 40
0.27589
 40
0.27589
 40
0.396575
 40
0.396575
 40
0.396575
 40
0.51726
 40
0.51726
 40
0.51726
 40
0.637945
 40
0.637945
 40
0.637945
 40
0.75863
 40
0.75863
 40
0.75863
 40
0.879315
 40
0.879315
 40
0.879315
 40
1
 40
1
 40
1
 40
1
 10
-17.2
 20
3
 30
51.0442
 10
-15.6269
 20
3
 30
51.3284
 10
-14.0812
 20
3
 30
51.7733
 10
-12.5983
 20
3
 30
52.3944
 10
-11.8568
 20
3
 30
52.705
 10
-11.131
 20
3
 30
53.0596
 10
-10.4279
 20
3
 30
53.4376
 10
-9.72475
 20
3
 30
53.8155
 10
-9.04431
 20
3
 30
54.2168
 10
-8.3745
 20
3
 30
54.6075
 10
-7.70469
 20
3
 30
54.9982
 10
-7.04551
 20
3
 30
55.3782
 10
-6.3782
 20
3
 30
55.7063
 10
-5.71188
 20
3
 30
56.0366
 10
-5.03445
 20
3
 30
56.308
 10
-4.34591
 20
3
 30
56.5206
 10
-3.65818
 20
3
 30
56.7286
 10
-2.951
 20
3
 30
56.8776
 10
-2.22439
 20
3
 30
56.9677
 10
-1.49599
 20
3
 30
57.0599
 10
-0.742774
 20
3
 30
57.1
 10
-2.44249e-15
 20
3
 30
57.1
  0
LINE
  5
AC6
330
A02
100
AcDbEntity
  8
Solid
100
AcDbLine
 10
-17.2
 20
3
 30
-51.0444
 11
-17.2
 21
3
 31
51.0442
  0
SPLINE
  5
AC7
330
A02
100
AcDbEntity
  8
Solid
100
AcDbSpline
210
0
220
0
230
1
 70
8
 71
3
 72
26
 73
22
 74
0
 40
0
 40
0
 40
0
 40
0
 40
0.120676
 40
0.120676
 40
0.120676
 40
0.241352
 40
0.241352
 40
0.241352
 40
0.362028
 40
0.362028
 40
0.362028
 40
0.482704
 40
0.482704
 40
0.482704
 40
0.603379
 40
0.603379
 40
0.603379
 40
0.724055
 40
0.724055
 40
0.724055
 40
0.965407
 40
0.965407
 40
0.965407
 40
0.965407
 10
-1.33227e-15
 20
3
 30
-57.1
 10
-0.741996
 20
3
 30
-57.1
 10
-1.49124
 20
3
 30
-57.0603
 10
-2.22205
 20
3
 30
-56.9676
 10
-2.95233
 20
3
 30
-56.8773
 10
-3.66575
 20
3
 30
-56.7266
 10
-4.36231
 20
3
 30
-56.5156
 10
-5.059
 20
3
 30
-56.299
 10
-5.74154
 20
3
 30
-56.024
 10
-6.40991
 20
3
 30
-55.6906
 10
-7.07866
 20
3
 30
-55.3603
 10
-7.73438
 20
3
 30
-54.981
 10
-8.40302
 20
3
 30
-54.5908
 10
-9.07166
 20
3
 30
-54.2006
 10
-9.75321
 20
3
 30
-53.7995
 10
-10.455
 20
3
 30
-53.423
 10
-11.1575
 20
3
 30
-53.0434
 10
-11.8782
 20
3
 30
-52.6979
 10
-12.617
 20
3
 30
-52.3866
 10
-14.0932
 20
3
 30
-51.7702
 10
-15.6336
 20
3
 30
-51.328
 10
-17.2
 20
3
 30
-51.0444
  0
SPLINE
  5
AC8
330
A02
100
AcDbEntity
  8
Solid
100
AcDbSpline
210
0
220
0
230
1
 70
8
 71
3
 72
26
 73
22
 74
0
 40
0.0345203
 40
0.0345203
 40
0.0345203
 40
0.0345203
 40
0.27589
 40
0.27589
 40
0.27589
 40
0.396575
 40
0.396575
 40
0.396575
 40
0.51726
 40
0.51726
 40
0.51726
 40
0.637945
 40
0.637945
 40
0.637945
 40
0.75863
 40
0.75863
 40
0.75863
 40
0.879315
 40
0.879315
 40
0.879315
 40
1
 40
1
 40
1
 40
1
 10
17.2
 20
3
 30
-51.0442
 10
15.6269
 20
3
 30
-51.3284
 10
14.0812
 20
3
 30
-51.7733
 10
12.5983
 20
3
 30
-52.3944
 10
11.8568
 20
3
 30
-52.705
 10
11.131
 20
3
 30
-53.0596
 10
10.4279
 20
3
 30
-53.4376
 10
9.72475
 20
3
 30
-53.8155
 10
9.04431
 20
3
 30
-54.2168
 10
8.3745
 20
3
 30
-54.6075
 10
7.70469
 20
3
 30
-54.9982
 10
7.04551
 20
3
 30
-55.3782
 10
6.3782
 20
3
 30
-55.7063
 10
5.71188
 20
3
 30
-56.0366
 10
5.03445
 20
3
 30
-56.308
 10
4.34591
 20
3
 30
-56.5206
 10
3.65818
 20
3
 30
-56.7286
 10
2.951
 20
3
 30
-56.8776
 10
2.22439
 20
3
 30
-56.9677
 10
1.49599
 20
3
 30
-57.0599
 10
0.742774
 20
3
 30
-57.1
 10
-1.33227e-15
 20
3
 30
-57.1
  0
LINE
  5
AC9
330
A02
100
AcDbEntity
  8
Solid
100
AcDbLine
 10
17.2
 20
3
 30
51.0444
 11
17.2
 21
3
 31
-51.0442
  0
SPLINE
  5
ACA
330
A02
100
AcDbEntity
  8
Solid
100
AcDbSpline
210
0
220
0
230
1
 70
8
 71
3
 72
35
 73
31
 74
0
 40
0
 40
0
 40
0
 40
0
 40
0.125
 40
0.125
 40
0.125
 40
0.25
 40
0.25
 40
0.25
 40
0.3125
 40
0.3125
 40
0.3125
 40
0.375
 40
0.375
 40
0.375
 40
0.4375
 40
0.4375
 40
0.4375
 40
0.5
 40
0.5
 40
0.5
 40
0.5625
 40
0.5625
 40
0.5625
 40
0.625
 40
0.625
 40
0.625
 40
0.75
 40
0.75
 40
0.75
 40
1
 40
1
 40
1
 40
1
 10
1.59872e-14
 20
3
 30
57.9
 10
0.85473
 20
3
 30
57.9
 10
1.65665
 20
3
 30
57.8501
 10
2.40575
 20
3
 30
57.7504
 10
3.23276
 20
3
 30
57.6402
 10
4.01613
 20
3
 30
57.4671
 10
4.75585
 20
3
 30
57.2308
 10
5.13542
 20
3
 30
57.1096
 10
5.5152
 20
3
 30
56.9686
 10
5.89519
 20
3
 30
56.8079
 10
6.24531
 20
3
 30
56.6597
 10
6.60985
 20
3
 30
56.4887
 10
6.98881
 20
3
 30
56.2948
 10
7.30466
 20
3
 30
56.1331
 10
7.65833
 20
3
 30
55.9411
 10
8.0498
 20
3
 30
55.7188
 10
8.25431
 20
3
 30
55.6027
 10
8.60279
 20
3
 30
55.4007
 10
9.09523
 20
3
 30
55.1129
 10
9.5229
 20
3
 30
54.8629
 10
9.87178
 20
3
 30
54.6617
 10
10.1419
 20
3
 30
54.5093
 10
10.5266
 20
3
 30
54.2921
 10
10.8802
 20
3
 30
54.1
 10
11.2027
 20
3
 30
53.933
 10
11.9473
 20
3
 30
53.5474
 10
12.6738
 20
3
 30
53.2164
 10
13.3855
 20
3
 30
52.9386
 10
14.8233
 20
3
 30
52.3776
 10
16.3615
 20
3
 30
51.972
 10
18
 20
3
 30
51.7219
  0
LINE
  5
ACB
330
A02
100
AcDbEntity
  8
Solid
100
AcDbLine
 10
18
 20
3
 30
51.7219
 11
18
 21
3
 31
-51.7219
  0
SPLINE
  5
ACC
330
A02
100
AcDbEntity
  8
Solid
100
AcDbSpline
210
0
220
0
230
1
 70
8
 71
2
 72
26
 73
23
 74
0
 40
0
 40
0
 40
0
 40
0.125
 40
0.125
 40
0.25
 40
0.25
 40
0.375
 40
0.375
 40
0.4375
 40
0.4375
 40
0.5
 40
0.5
 40
0.5625
 40
0.5625
 40
0.625
 40
0.625
 40
0.6875
 40
0.6875
 40
0.75
 40
0.75
 40
0.875
 40
0.875
 40
1
 40
1
 40
1
 10
18
 20
3
 30
-51.7219
 10
16.7759
 20
3
 30
-51.9087
 10
15.6449
 20
3
 30
-52.2052
 10
14.478
 20
3
 30
-52.5111
 10
13.3691
 20
3
 30
-52.9451
 10
12.2975
 20
3
 30
-53.3644
 10
11.176
 20
3
 30
-53.9469
 10
10.6918
 20
3
 30
-54.1983
 10
10.1139
 20
3
 30
-54.5251
 10
9.71484
 20
3
 30
-54.7507
 10
9.06629
 20
3
 30
-55.1298
 10
8.33933
 20
3
 30
-55.5547
 10
8.01951
 20
3
 30
-55.736
 10
7.43147
 20
3
 30
-56.0693
 10
6.95598
 20
3
 30
-56.3115
 10
6.38603
 20
3
 30
-56.6019
 10
5.85973
 20
3
 30
-56.8228
 10
5.2965
 20
3
 30
-57.0593
 10
4.73534
 20
3
 30
-57.2374
 10
3.62994
 20
3
 30
-57.5882
 10
2.40758
 20
3
 30
-57.7506
 10
1.28231
 20
3
 30
-57.9
 10
-1.33227e-15
 20
3
 30
-57.9
  0
SPLINE
  5
ACD
330
A02
100
AcDbEntity
  8
Solid
100
AcDbSpline
210
0
220
0
230
1
 70
8
 71
3
 72
35
 73
31
 74
0
 40
0
 40
0
 40
0
 40
0
 40
0.125
 40
0.125
 40
0.125
 40
0.25
 40
0.25
 40
0.25
 40
0.3125
 40
0.3125
 40
0.3125
 40
0.375
 40
0.375
 40
0.375
 40
0.4375
 40
0.4375
 40
0.4375
 40
0.5
 40
0.5
 40
0.5
 40
0.5625
 40
0.5625
 40
0.5625
 40
0.625
 40
0.625
 40
0.625
 40
0.75
 40
0.75
 40
0.75
 40
1
 40
1
 40
1
 40
1
 10
-1.33227e-15
 20
3
 30
-57.9
 10
-0.85473
 20
3
 30
-57.9
 10
-1.65665
 20
3
 30
-57.8501
 10
-2.40575
 20
3
 30
-57.7504
 10
-3.23276
 20
3
 30
-57.6402
 10
-4.01613
 20
3
 30
-57.4671
 10
-4.75585
 20
3
 30
-57.2308
 10
-5.13542
 20
3
 30
-57.1096
 10
-5.5152
 20
3
 30
-56.9686
 10
-5.89519
 20
3
 30
-56.8079
 10
-6.24531
 20
3
 30
-56.6597
 10
-6.60985
 20
3
 30
-56.4887
 10
-6.98881
 20
3
 30
-56.2948
 10
-7.30466
 20
3
 30
-56.1331
 10
-7.65833
 20
3
 30
-55.9411
 10
-8.0498
 20
3
 30
-55.7188
 10
-8.25431
 20
3
 30
-55.6027
 10
-8.60279
 20
3
 30
-55.4007
 10
-9.09523
 20
3
 30
-55.1129
 10
-9.5229
 20
3
 30
-54.8629
 10
-9.87178
 20
3
 30
-54.6617
 10
-10.1419
 20
3
 30
-54.5093
 10
-10.5266
 20
3
 30
-54.2921
 10
-10.8802
 20
3
 30
-54.1
 10
-11.2027
 20
3
 30
-53.933
 10
-11.9473
 20
3
 30
-53.5474
 10
-12.6738
 20
3
 30
-53.2164
 10
-13.3855
 20
3
 30
-52.9386
 10
-14.8233
 20
3
 30
-52.3776
 10
-16.3615
 20
3
 30
-51.972
 10
-18
 20
3
 30
-51.7219
  0
LINE
  5
ACE
330
A02
100
AcDbEntity
  8
Solid
100
AcDbLine
 10
-18
 20
3
 30
-51.7219
 11
-18
 21
3
 31
51.7219
  0
SPLINE
  5
ACF
330
A02
100
AcDbEntity
  8
Solid
100
AcDbSpline
210
0
220
0
230
1
 70
8
 71
2
 72
26
 73
23
 74
0
 40
0
 40
0
 40
0
 40
0.125
 40
0.125
 40
0.25
 40
0.25
 40
0.375
 40
0.375
 40
0.4375
 40
0.4375
 40
0.5
 40
0.5
 40
0.5625
 40
0.5625
 40
0.625
 40
0.625
 40
0.6875
 40
0.6875
 40
0.75
 40
0.75
 40
0.875
 40
0.875
 40
1
 40
1
 40
1
 10
-18
 20
3
 30
51.7219
 10
-16.7759
 20
3
 30
51.9087
 10
-15.6449
 20
3
 30
52.2052
 10
-14.478
 20
3
 30
52.5111
 10
-13.3691
 20
3
 30
52.9451
 10
-12.2975
 20
3
 30
53.3644
 10
-11.176
 20
3
 30
53.9469
 10
-10.6918
 20
3
 30
54.1983
 10
-10.1139
 20
3
 30
54.5251
 10
-9.71484
 20
3
 30
54.7507
 10
-9.06629
 20
3
 30
55.1298
 10
-8.33933
 20
3
 30
55.5547
 10
-8.01951
 20
3
 30
55.736
 10
-7.43147
 20
3
 30
56.0693
 10
-6.95598
 20
3
 30
56.3115
 10
-6.38603
 20
3
 30
56.6019
 10
-5.85973
 20
3
 30
56.8228
 10
-5.2965
 20
3
 30
57.0593
 10
-4.73534
 20
3
 30
57.2374
 10
-3.62994
 20
3
 30
57.5882
 10
-2.40758
 20
3
 30
57.7506
 10
-1.28231
 20
3
 30
57.9
 10
1.59872e-14
 20
3
 30
57.9
  0
SPLINE
  5
AD0
330
A02
100
AcDbEntity
  8
Solid
100
AcDbSpline
210
0
220
0
230
1
 70
8
 71
3
 72
26
 73
22
 74
0
 40
0
 40
0
 40
0
 40
0
 40
0.120676
 40
0.120676
 40
0.120676
 40
0.241352
 40
0.241352
 40
0.241352
 40
0.362028
 40
0.362028
 40
0.362028
 40
0.482704
 40
0.482704
 40
0.482704
 40
0.603379
 40
0.603379
 40
0.603379
 40
0.724055
 40
0.724055
 40
0.724055
 40
0.965407
 40
0.965407
 40
0.965407
 40
0.965407
 10
-2.22045e-15
 20
3.5
 30
57.1
 10
0.741996
 20
3.5
 30
57.1
 10
1.49124
 20
3.5
 30
57.0603
 10
2.22205
 20
3.5
 30
56.9676
 10
2.95233
 20
3.5
 30
56.8773
 10
3.66575
 20
3.5
 30
56.7266
 10
4.36231
 20
3.5
 30
56.5156
 10
5.059
 20
3.5
 30
56.299
 10
5.74154
 20
3.5
 30
56.024
 10
6.40991
 20
3.5
 30
55.6906
 10
7.07866
 20
3.5
 30
55.3603
 10
7.73438
 20
3.5
 30
54.981
 10
8.40302
 20
3.5
 30
54.5908
 10
9.07166
 20
3.5
 30
54.2006
 10
9.75321
 20
3.5
 30
53.7995
 10
10.455
 20
3.5
 30
53.423
 10
11.1575
 20
3.5
 30
53.0434
 10
11.8782
 20
3.5
 30
52.6979
 10
12.617
 20
3.5
 30
52.3866
 10
14.0932
 20
3.5
 30
51.7702
 10
15.6336
 20
3.5
 30
51.328
 10
17.2
 20
3.5
 30
51.0444
  0
LINE
  5
AD1
330
A02
100
AcDbEntity
  8
Solid
100
AcDbLine
 10
-2.37812e-15
 20
3
 30
57.1
 11
-2.37812e-15
 21
3.5
 31
57.1
  0
SPLINE
  5
AD2
330
A02
100
AcDbEntity
  8
Solid
100
AcDbSpline
210
0
220
0
230
1
 70
8
 71
3
 72
26
 73
22
 74
0
 40
0
 40
0
 40
0
 40
0
 40
0.120676
 40
0.120676
 40
0.120676
 40
0.241352
 40
0.241352
 40
0.241352
 40
0.362028
 40
0.362028
 40
0.362028
 40
0.482704
 40
0.482704
 40
0.482704
 40
0.603379
 40
0.603379
 40
0.603379
 40
0.724055
 40
0.724055
 40
0.724055
 40
0.965407
 40
0.965407
 40
0.965407
 40
0.965407
 10
-2.22045e-15
 20
3
 30
57.1
 10
0.741996
 20
3
 30
57.1
 10
1.49124
 20
3
 30
57.0603
 10
2.22205
 20
3
 30
56.9676
 10
2.95233
 20
3
 30
56.8773
 10
3.66575
 20
3
 30
56.7266
 10
4.36231
 20
3
 30
56.5156
 10
5.059
 20
3
 30
56.299
 10
5.74154
 20
3
 30
56.024
 10
6.40991
 20
3
 30
55.6906
 10
7.07866
 20
3
 30
55.3603
 10
7.73438
 20
3
 30
54.981
 10
8.40302
 20
3
 30
54.5908
 10
9.07166
 20
3
 30
54.2006
 10
9.75321
 20
3
 30
53.7995
 10
10.455
 20
3
 30
53.423
 10
11.1575
 20
3
 30
53.0434
 10
11.8782
 20
3
 30
52.6979
 10
12.617
 20
3
 30
52.3866
 10
14.0932
 20
3
 30
51.7702
 10
15.6336
 20
3
 30
51.328
 10
17.2
 20
3
 30
51.0444
  0
LINE
  5
AD3
330
A02
100
AcDbEntity
  8
Solid
100
AcDbLine
 10
17.2
 20
3
 30
51.0444
 11
17.2
 21
3.5
 31
51.0444
  0
SPLINE
  5
AD4
330
A02
100
AcDbEntity
  8
Solid
100
AcDbSpline
210
0
220
0
230
1
 70
8
 71
3
 72
26
 73
22
 74
0
 40
0.0345203
 40
0.0345203
 40
0.0345203
 40
0.0345203
 40
0.27589
 40
0.27589
 40
0.27589
 40
0.396575
 40
0.396575
 40
0.396575
 40
0.51726
 40
0.51726
 40
0.51726
 40
0.637945
 40
0.637945
 40
0.637945
 40
0.75863
 40
0.75863
 40
0.75863
 40
0.879315
 40
0.879315
 40
0.879315
 40
1
 40
1
 40
1
 40
1
 10
-17.2
 20
3.5
 30
51.0442
 10
-15.6269
 20
3.5
 30
51.3284
 10
-14.0812
 20
3.5
 30
51.7733
 10
-12.5983
 20
3.5
 30
52.3944
 10
-11.8568
 20
3.5
 30
52.705
 10
-11.131
 20
3.5
 30
53.0596
 10
-10.4279
 20
3.5
 30
53.4376
 10
-9.72475
 20
3.5
 30
53.8155
 10
-9.04431
 20
3.5
 30
54.2168
 10
-8.3745
 20
3.5
 30
54.6075
 10
-7.70469
 20
3.5
 30
54.9982
 10
-7.04551
 20
3.5
 30
55.3782
 10
-6.3782
 20
3.5
 30
55.7063
 10
-5.71188
 20
3.5
 30
56.0366
 10
-5.03445
 20
3.5
 30
56.308
 10
-4.34591
 20
3.5
 30
56.5206
 10
-3.65818
 20
3.5
 30
56.7286
 10
-2.951
 20
3.5
 30
56.8776
 10
-2.22439
 20
3.5
 30
56.9677
 10
-1.49599
 20
3.5
 30
57.0599
 10
-0.742774
 20
3.5
 30
57.1
 10
-2.44249e-15
 20
3.5
 30
57.1
  0
LINE
  5
AD5
330
A02
100
AcDbEntity
  8
Solid
100
AcDbLine
 10
-17.2
 20
3
 30
51.0442
 11
-17.2
 21
3.5
 31
51.0442
  0
SPLINE
  5
AD6
330
A02
100
AcDbEntity
  8
Solid
100
AcDbSpline
210
0
220
0
230
1
 70
8
 71
3
 72
26
 73
22
 74
0
 40
0.0345203
 40
0.0345203
 40
0.0345203
 40
0.0345203
 40
0.27589
 40
0.27589
 40
0.27589
 40
0.396575
 40
0.396575
 40
0.396575
 40
0.51726
 40
0.51726
 40
0.51726
 40
0.637945
 40
0.637945
 40
0.637945
 40
0.75863
 40
0.75863
 40
0.75863
 40
0.879315
 40
0.879315
 40
0.879315
 40
1
 40
1
 40
1
 40
1
 10
-17.2
 20
3
 30
51.0442
 10
-15.6269
 20
3
 30
51.3284
 10
-14.0812
 20
3
 30
51.7733
 10
-12.5983
 20
3
 30
52.3944
 10
-11.8568
 20
3
 30
52.705
 10
-11.131
 20
3
 30
53.0596
 10
-10.4279
 20
3
 30
53.4376
 10
-9.72475
 20
3
 30
53.8155
 10
-9.04431
 20
3
 30
54.2168
 10
-8.3745
 20
3
 30
54.6075
 10
-7.70469
 20
3
 30
54.9982
 10
-7.04551
 20
3
 30
55.3782
 10
-6.3782
 20
3
 30
55.7063
 10
-5.71188
 20
3
 30
56.0366
 10
-5.03445
 20
3
 30
56.308
 10
-4.34591
 20
3
 30
56.5206
 10
-3.65818
 20
3
 30
56.7286
 10
-2.951
 20
3
 30
56.8776
 10
-2.22439
 20
3
 30
56.9677
 10
-1.49599
 20
3
 30
57.0599
 10
-0.742774
 20
3
 30
57.1
 10
-2.44249e-15
 20
3
 30
57.1
  0
LINE
  5
AD7
330
A02
100
AcDbEntity
  8
Solid
100
AcDbLine
 10
-2.37812e-15
 20
3
 30
57.1
 11
-2.37812e-15
 21
3.5
 31
57.1
  0
LINE
  5
AD8
330
A02
100
AcDbEntity
  8
Solid
100
AcDbLine
 10
-17.2
 20
3.5
 30
-51.0444
 11
-17.2
 21
3.5
 31
51.0442
  0
LINE
  5
AD9
330
A02
100
AcDbEntity
  8
Solid
100
AcDbLine
 10
-17.2
 20
3
 30
-51.0444
 11
-17.2
 21
3.5
 31
-51.0444
  0
LINE
  5
ADA
330
A02
100
AcDbEntity
  8
Solid
100
AcDbLine
 10
-17.2
 20
3
 30
-51.0444
 11
-17.2
 21
3
 31
51.0442
  0
LINE
  5
ADB
330
A02
100
AcDbEntity
  8
Solid
100
AcDbLine
 10
-17.2
 20
3
 30
51.0442
 11
-17.2
 21
3.5
 31
51.0442
  0
SPLINE
  5
ADC
330
A02
100
AcDbEntity
  8
Solid
100
AcDbSpline
210
0
220
0
230
1
 70
8
 71
3
 72
26
 73
22
 74
0
 40
0
 40
0
 40
0
 40
0
 40
0.120676
 40
0.120676
 40
0.120676
 40
0.241352
 40
0.241352
 40
0.241352
 40
0.362028
 40
0.362028
 40
0.362028
 40
0.482704
 40
0.482704
 40
0.482704
 40
0.603379
 40
0.603379
 40
0.603379
 40
0.724055
 40
0.724055
 40
0.724055
 40
0.965407
 40
0.965407
 40
0.965407
 40
0.965407
 10
-1.33227e-15
 20
3.5
 30
-57.1
 10
-0.741996
 20
3.5
 30
-57.1
 10
-1.49124
 20
3.5
 30
-57.0603
 10
-2.22205
 20
3.5
 30
-56.9676
 10
-2.95233
 20
3.5
 30
-56.8773
 10
-3.66575
 20
3.5
 30
-56.7266
 10
-4.36231
 20
3.5
 30
-56.5156
 10
-5.059
 20
3.5
 30
-56.299
 10
-5.74154
 20
3.5
 30
-56.024
 10
-6.40991
 20
3.5
 30
-55.6906
 10
-7.07866
 20
3.5
 30
-55.3603
 10
-7.73438
 20
3.5
 30
-54.981
 10
-8.40302
 20
3.5
 30
-54.5908
 10
-9.07166
 20
3.5
 30
-54.2006
 10
-9.75321
 20
3.5
 30
-53.7995
 10
-10.455
 20
3.5
 30
-53.423
 10
-11.1575
 20
3.5
 30
-53.0434
 10
-11.8782
 20
3.5
 30
-52.6979
 10
-12.617
 20
3.5
 30
-52.3866
 10
-14.0932
 20
3.5
 30
-51.7702
 10
-15.6336
 20
3.5
 30
-51.328
 10
-17.2
 20
3.5
 30
-51.0444
  0
LINE
  5
ADD
330
A02
100
AcDbEntity
  8
Solid
100
AcDbLine
 10
-1.30817e-15
 20
3
 30
-57.1
 11
-1.30817e-15
 21
3.5
 31
-57.1
  0
SPLINE
  5
ADE
330
A02
100
AcDbEntity
  8
Solid
100
AcDbSpline
210
0
220
0
230
1
 70
8
 71
3
 72
26
 73
22
 74
0
 40
0
 40
0
 40
0
 40
0
 40
0.120676
 40
0.120676
 40
0.120676
 40
0.241352
 40
0.241352
 40
0.241352
 40
0.362028
 40
0.362028
 40
0.362028
 40
0.482704
 40
0.482704
 40
0.482704
 40
0.603379
 40
0.603379
 40
0.603379
 40
0.724055
 40
0.724055
 40
0.724055
 40
0.965407
 40
0.965407
 40
0.965407
 40
0.965407
 10
-1.33227e-15
 20
3
 30
-57.1
 10
-0.741996
 20
3
 30
-57.1
 10
-1.49124
 20
3
 30
-57.0603
 10
-2.22205
 20
3
 30
-56.9676
 10
-2.95233
 20
3
 30
-56.8773
 10
-3.66575
 20
3
 30
-56.7266
 10
-4.36231
 20
3
 30
-56.5156
 10
-5.059
 20
3
 30
-56.299
 10
-5.74154
 20
3
 30
-56.024
 10
-6.40991
 20
3
 30
-55.6906
 10
-7.07866
 20
3
 30
-55.3603
 10
-7.73438
 20
3
 30
-54.981
 10
-8.40302
 20
3
 30
-54.5908
 10
-9.07166
 20
3
 30
-54.2006
 10
-9.75321
 20
3
 30
-53.7995
 10
-10.455
 20
3
 30
-53.423
 10
-11.1575
 20
3
 30
-53.0434
 10
-11.8782
 20
3
 30
-52.6979
 10
-12.617
 20
3
 30
-52.3866
 10
-14.0932
 20
3
 30
-51.7702
 10
-15.6336
 20
3
 30
-51.328
 10
-17.2
 20
3
 30
-51.0444
  0
LINE
  5
ADF
330
A02
100
AcDbEntity
  8
Solid
100
AcDbLine
 10
-17.2
 20
3
 30
-51.0444
 11
-17.2
 21
3.5
 31
-51.0444
  0
SPLINE
  5
AE0
330
A02
100
AcDbEntity
  8
Solid
100
AcDbSpline
210
0
220
0
230
1
 70
8
 71
3
 72
26
 73
22
 74
0
 40
0.0345203
 40
0.0345203
 40
0.0345203
 40
0.0345203
 40
0.27589
 40
0.27589
 40
0.27589
 40
0.396575
 40
0.396575
 40
0.396575
 40
0.51726
 40
0.51726
 40
0.51726
 40
0.637945
 40
0.637945
 40
0.637945
 40
0.75863
 40
0.75863
 40
0.75863
 40
0.879315
 40
0.879315
 40
0.879315
 40
1
 40
1
 40
1
 40
1
 10
17.2
 20
3.5
 30
-51.0442
 10
15.6269
 20
3.5
 30
-51.3284
 10
14.0812
 20
3.5
 30
-51.7733
 10
12.5983
 20
3.5
 30
-52.3944
 10
11.8568
 20
3.5
 30
-52.705
 10
11.131
 20
3.5
 30
-53.0596
 10
10.4279
 20
3.5
 30
-53.4376
 10
9.72475
 20
3.5
 30
-53.8155
 10
9.04431
 20
3.5
 30
-54.2168
 10
8.3745
 20
3.5
 30
-54.6075
 10
7.70469
 20
3.5
 30
-54.9982
 10
7.04551
 20
3.5
 30
-55.3782
 10
6.3782
 20
3.5
 30
-55.7063
 10
5.71188
 20
3.5
 30
-56.0366
 10
5.03445
 20
3.5
 30
-56.308
 10
4.34591
 20
3.5
 30
-56.5206
 10
3.65818
 20
3.5
 30
-56.7286
 10
2.951
 20
3.5
 30
-56.8776
 10
2.22439
 20
3.5
 30
-56.9677
 10
1.49599
 20
3.5
 30
-57.0599
 10
0.742774
 20
3.5
 30
-57.1
 10
-1.33227e-15
 20
3.5
 30
-57.1
  0
LINE
  5
AE1
330
A02
100
AcDbEntity
  8
Solid
100
AcDbLine
 10
17.2
 20
3
 30
-51.0442
 11
17.2
 21
3.5
 31
-51.0442
  0
SPLINE
  5
AE2
330
A02
100
AcDbEntity
  8
Solid
100
AcDbSpline
210
0
220
0
230
1
 70
8
 71
3
 72
26
 73
22
 74
0
 40
0.0345203
 40
0.0345203
 40
0.0345203
 40
0.0345203
 40
0.27589
 40
0.27589
 40
0.27589
 40
0.396575
 40
0.396575
 40
0.396575
 40
0.51726
 40
0.51726
 40
0.51726
 40
0.637945
 40
0.637945
 40
0.637945
 40
0.75863
 40
0.75863
 40
0.75863
 40
0.879315
 40
0.879315
 40
0.879315
 40
1
 40
1
 40
1
 40
1
 10
17.2
 20
3
 30
-51.0442
 10
15.6269
 20
3
 30
-51.3284
 10
14.0812
 20
3
 30
-51.7733
 10
12.5983
 20
3
 30
-52.3944
 10
11.8568
 20
3
 30
-52.705
 10
11.131
 20
3
 30
-53.0596
 10
10.4279
 20
3
 30
-53.4376
 10
9.72475
 20
3
 30
-53.8155
 10
9.04431
 20
3
 30
-54.2168
 10
8.3745
 20
3
 30
-54.6075
 10
7.70469
 20
3
 30
-54.9982
 10
7.04551
 20
3
 30
-55.3782
 10
6.3782
 20
3
 30
-55.7063
 10
5.71188
 20
3
 30
-56.0366
 10
5.03445
 20
3
 30
-56.308
 10
4.34591
 20
3
 30
-56.5206
 10
3.65818
 20
3
 30
-56.7286
 10
2.951
 20
3
 30
-56.8776
 10
2.22439
 20
3
 30
-56.9677
 10
1.49599
 20
3
 30
-57.0599
 10
0.742774
 20
3
 30
-57.1
 10
-1.33227e-15
 20
3
 30
-57.1
  0
LINE
  5
AE3
330
A02
100
AcDbEntity
  8
Solid
100
AcDbLine
 10
-1.30817e-15
 20
3
 30
-57.1
 11
-1.30817e-15
 21
3.5
 31
-57.1
  0
LINE
  5
AE4
330
A02
100
AcDbEntity
  8
Solid
100
AcDbLine
 10
17.2
 20
3.5
 30
51.0444
 11
17.2
 21
3.5
 31
-51.0442
  0
LINE
  5
AE5
330
A02
100
AcDbEntity
  8
Solid
100
AcDbLine
 10
17.2
 20
3
 30
51.0444
 11
17.2
 21
3.5
 31
51.0444
  0
LINE
  5
AE6
330
A02
100
AcDbEntity
  8
Solid
100
AcDbLine
 10
17.2
 20
3
 30
51.0444
 11
17.2
 21
3
 31
-51.0442
  0
LINE
  5
AE7
330
A02
100
AcDbEntity
  8
Solid
100
AcDbLine
 10
17.2
 20
3
 30
-51.0442
 11
17.2
 21
3.5
 31
-51.0442
  0
ARC
  5
AE8
330
A02
100
AcDbEntity
  8
Solid
100
AcDbCircle
 10
-7.34788e-15
 20
-8
 30
-20
 40
11.0984
100
AcDbArc
 50
0
 51
180
  0
LINE
  5
AE9
330
A02
100
AcDbEntity
  8
Solid
100
AcDbLine
 10
-11.0984
 20
-8
 30
20
 11
-11.0984
 21
-8
 31
-20
  0
ARC
  5
AEA
330
A02
100
AcDbEntity
  8
Solid
100
AcDbCircle
 10
0
 20
-8
 30
20
 40
1.35916e-15
100
AcDbArc
 50
180
 51
0
  0
ARC
  5
AEB
330
A02
100
AcDbEntity
  8
Solid
100
AcDbCircle
 10
0
 20
-8
 30
20
 40
11.0984
100
AcDbArc
 50
0
 51
0
  0
LINE
  5
AEC
330
A02
100
AcDbEntity
  8
Solid
100
AcDbLine
 10
11.0984
 20
-8
 30
-20
 11
11.0984
 21
-8
 31
20
  0
LINE
  5
AED
330
A02
100
AcDbEntity
  8
Solid
100
AcDbLine
 10
-11.0984
 20
-8
 30
-20
 11
-11.5
 21
3.5
 31
-20
  0
ARC
  5
AEE
330
A02
100
AcDbEntity
  8
Solid
100
AcDbCircle
 10
-7.34788e-15
 20
3.5
 30
-20
 40
11.5
100
AcDbArc
 50
180
 51
0
  0
LINE
  5
AEF
330
A02
100
AcDbEntity
  8
Solid
100
AcDbLine
 10
11.0984
 20
-8
 30
-20
 11
11.5
 21
3.5
 31
-20
  0
ARC
  5
AF0
330
A02
100
AcDbEntity
  8
Solid
100
AcDbCircle
 10
-7.34788e-15
 20
-8
 30
-20
 40
11.0984
100
AcDbArc
 50
0
 51
180
  0
LINE
  5
AF1
330
A02
100
AcDbEntity
  8
Solid
100
AcDbLine
 10
-11.0984
 20
-8
 30
20
 11
-11.0984
 21
-8
 31
-20
  0
LINE
  5
AF2
330
A02
100
AcDbEntity
  8
Solid
100
AcDbLine
 10
-11.0984
 20
-8
 30
-20
 11
-11.5
 21
3.5
 31
-20
  0
LINE
  5
AF3
330
A02
100
AcDbEntity
  8
Solid
100
AcDbLine
 10
-11.5
 20
3.5
 30
-20
 11
-11.5
 21
3.5
 31
20
  0
LINE
  5
AF4
330
A02
100
AcDbEntity
  8
Solid
100
AcDbLine
 10
-11.0984
 20
-8
 30
20
 11
-11.5
 21
3.5
 31
20
  0
ARC
  5
AF5
330
A02
100
AcDbEntity
  8
Solid
100
AcDbCircle
 10
0
 20
3.5
 30
20
 40
11.5
100
AcDbArc
 50
180
 51
180
  0
LINE
  5
AF6
330
A02
100
AcDbEntity
  8
Solid
100
AcDbLine
 10
-11.0984
 20
-8
 30
20
 11
-11.5
 21
3.5
 31
20
  0
ARC
  5
AF7
330
A02
100
AcDbEntity
  8
Solid
100
AcDbCircle
 10
0
 20
-8
 30
20
 40
1.35916e-15
100
AcDbArc
 50
180
 51
0
  0
LINE
  5
AF8
330
A02
100
AcDbEntity
  8
Solid
100
AcDbLine
 10
0
 20
-8
 30
31.0984
 11
0
 21
3.5
 31
31.5
  0
LINE
  5
AF9
330
A02
100
AcDbEntity
  8
Solid
100
AcDbLine
 10
11.0984
 20
-8
 30
-20
 11
11.0984
 21
-8
 31
20
  0
LINE
  5
AFA
330
A02
100
AcDbEntity
  8
Solid
100
AcDbLine
 10
11.0984
 20
-8
 30
20
 11
11.5
 21
3.5
 31
20
  0
LINE
  5
AFB
330
A02
100
AcDbEntity
  8
Solid
100
AcDbLine
 10
11.5
 20
3.5
 30
20
 11
11.5
 21
3.5
 31
-20
  0
LINE
  5
AFC
330
A02
100
AcDbEntity
  8
Solid
100
AcDbLine
 10
11.0984
 20
-8
 30
-20
 11
11.5
 21
3.5
 31
-20
  0
ARC
  5
AFD
330
A02
100
AcDbEntity
  8
Solid
100
AcDbCircle
 10
12.5
 20
3.5
 30
46.7
 40
0
100
AcDbArc
 50
180
 51
0
  0
ARC
  5
AFE
330
A02
100
AcDbEntity
  8
Solid
100
AcDbCircle
 10
12.5
 20
3.5
 30
46.7
 40
0
100
AcDbArc
 50
0
 51
0
  0
ARC
  5
AFF
330
A02
100
AcDbEntity
  8
Solid
100
AcDbCircle
 10
-12.5
 20
3.5
 30
46.7
 40
0
100
AcDbArc
 50
180
 51
0
  0
ARC
  5
B00
330
A02
100
AcDbEntity
  8
Solid
100
AcDbCircle
 10
-12.5
 20
3.5
 30
46.7
 40
0
100
AcDbArc
 50
0
 51
0
  0
ARC
  5
B01
330
A02
100
AcDbEntity
  8
Solid
100
AcDbCircle
 10
12.5
 20
3.5
 30
-46.7
 40
0
100
AcDbArc
 50
180
 51
0
  0
ARC
  5
B02
330
A02
100
AcDbEntity
  8
Solid
100
AcDbCircle
 10
12.5
 20
3.5
 30
-46.7
 40
0
100
AcDbArc
 50
0
 51
0
  0
ARC
  5
B03
330
A02
100
AcDbEntity
  8
Solid
100
AcDbCircle
 10
-12.5
 20
3.5
 30
-46.7
 40
0
100
AcDbArc
 50
180
 51
0
  0
ARC
  5
B04
330
A02
100
AcDbEntity
  8
Solid
100
AcDbCircle
 10
-12.5
 20
3.5
 30
-46.7
 40
0
100
AcDbArc
 50
0
 51
0
  0
LINE
  5
B05
330
A02
100
AcDbEntity
  8
Solid
100
AcDbLine
 10
11.5
 20
3.5
 30
20
 11
11.5
 21
3.5
 31
-20
  0
ARC
  5
B06
330
A02
100
AcDbEntity
  8
Solid
100
AcDbCircle
 10
0
 20
3.5
 30
20
 40
0
100
AcDbArc
 50
0
 51
0
  0
ARC
  5
B07
330
A02
100
AcDbEntity
  8
Solid
100
AcDbCircle
 10
0
 20
3.5
 30
20
 40
11.5
100
AcDbArc
 50
180
 51
180
  0
LINE
  5
B08
330
A02
100
AcDbEntity
  8
Solid
100
AcDbLine
 10
-11.5
 20
3.5
 30
-20
 11
-11.5
 21
3.5
 31
20
  0
ARC
  5
B09
330
A02
100
AcDbEntity
  8
Solid
100
AcDbCircle
 10
-7.34788e-15
 20
3.5
 30
-20
 40
11.5
100
AcDbArc
 50
180
 51
0
  0
SPLINE
  5
B0A
330
A02
100
AcDbEntity
  8
Solid
100
AcDbSpline
210
0
220
0
230
1
 70
8
 71
3
 72
26
 73
22
 74
0
 40
0
 40
0
 40
0
 40
0
 40
0.120676
 40
0.120676
 40
0.120676
 40
0.241352
 40
0.241352
 40
0.241352
 40
0.362028
 40
0.362028
 40
0.362028
 40
0.482704
 40
0.482704
 40
0.482704
 40
0.603379
 40
0.603379
 40
0.603379
 40
0.724055
 40
0.724055
 40
0.724055
 40
0.965407
 40
0.965407
 40
0.965407
 40
0.965407
 10
-2.22045e-15
 20
3.5
 30
57.1
 10
0.741996
 20
3.5
 30
57.1
 10
1.49124
 20
3.5
 30
57.0603
 10
2.22205
 20
3.5
 30
56.9676
 10
2.95233
 20
3.5
 30
56.8773
 10
3.66575
 20
3.5
 30
56.7266
 10
4.36231
 20
3.5
 30
56.5156
 10
5.059
 20
3.5
 30
56.299
 10
5.74154
 20
3.5
 30
56.024
 10
6.40991
 20
3.5
 30
55.6906
 10
7.07866
 20
3.5
 30
55.3603
 10
7.73438
 20
3.5
 30
54.981
 10
8.40302
 20
3.5
 30
54.5908
 10
9.07166
 20
3.5
 30
54.2006
 10
9.75321
 20
3.5
 30
53.7995
 10
10.455
 20
3.5
 30
53.423
 10
11.1575
 20
3.5
 30
53.0434
 10
11.8782
 20
3.5
 30
52.6979
 10
12.617
 20
3.5
 30
52.3866
 10
14.0932
 20
3.5
 30
51.7702
 10
15.6336
 20
3.5
 30
51.328
 10
17.2
 20
3.5
 30
51.0444
  0
LINE
  5
B0B
330
A02
100
AcDbEntity
  8
Solid
100
AcDbLine
 10
17.2
 20
3.5
 30
51.0444
 11
17.2
 21
3.5
 31
-51.0442
  0
SPLINE
  5
B0C
330
A02
100
AcDbEntity
  8
Solid
100
AcDbSpline
210
0
220
0
230
1
 70
8
 71
3
 72
26
 73
22
 74
0
 40
0.0345203
 40
0.0345203
 40
0.0345203
 40
0.0345203
 40
0.27589
 40
0.27589
 40
0.27589
 40
0.396575
 40
0.396575
 40
0.396575
 40
0.51726
 40
0.51726
 40
0.51726
 40
0.637945
 40
0.637945
 40
0.637945
 40
0.75863
 40
0.75863
 40
0.75863
 40
0.879315
 40
0.879315
 40
0.879315
 40
1
 40
1
 40
1
 40
1
 10
17.2
 20
3.5
 30
-51.0442
 10
15.6269
 20
3.5
 30
-51.3284
 10
14.0812
 20
3.5
 30
-51.7733
 10
12.5983
 20
3.5
 30
-52.3944
 10
11.8568
 20
3.5
 30
-52.705
 10
11.131
 20
3.5
 30
-53.0596
 10
10.4279
 20
3.5
 30
-53.4376
 10
9.72475
 20
3.5
 30
-53.8155
 10
9.04431
 20
3.5
 30
-54.2168
 10
8.3745
 20
3.5
 30
-54.6075
 10
7.70469
 20
3.5
 30
-54.9982
 10
7.04551
 20
3.5
 30
-55.3782
 10
6.3782
 20
3.5
 30
-55.7063
 10
5.71188
 20
3.5
 30
-56.0366
 10
5.03445
 20
3.5
 30
-56.308
 10
4.34591
 20
3.5
 30
-56.5206
 10
3.65818
 20
3.5
 30
-56.7286
 10
2.951
 20
3.5
 30
-56.8776
 10
2.22439
 20
3.5
 30
-56.9677
 10
1.49599
 20
3.5
 30
-57.0599
 10
0.742774
 20
3.5
 30
-57.1
 10
-1.33227e-15
 20
3.5
 30
-57.1
  0
SPLINE
  5
B0D
330
A02
100
AcDbEntity
  8
Solid
100
AcDbSpline
210
0
220
0
230
1
 70
8
 71
3
 72
26
 73
22
 74
0
 40
0
 40
0
 40
0
 40
0
 40
0.120676
 40
0.120676
 40
0.120676
 40
0.241352
 40
0.241352
 40
0.241352
 40
0.362028
 40
0.362028
 40
0.362028
 40
0.482704
 40
0.482704
 40
0.482704
 40
0.603379
 40
0.603379
 40
0.603379
 40
0.724055
 40
0.724055
 40
0.724055
 40
0.965407
 40
0.965407
 40
0.965407
 40
0.965407
 10
-1.33227e-15
 20
3.5
 30
-57.1
 10
-0.741996
 20
3.5
 30
-57.1
 10
-1.49124
 20
3.5
 30
-57.0603
 10
-2.22205
 20
3.5
 30
-56.9676
 10
-2.95233
 20
3.5
 30
-56.8773
 10
-3.66575
 20
3.5
 30
-56.7266
 10
-4.36231
 20
3.5
 30
-56.5156
 10
-5.059
 20
3.5
 30
-56.299
 10
-5.74154
 20
3.5
 30
-56.024
 10
-6.40991
 20
3.5
 30
-55.6906
 10
-7.07866
 20
3.5
 30
-55.3603
 10
-7.73438
 20
3.5
 30
-54.981
 10
-8.40302
 20
3.5
 30
-54.5908
 10
-9.07166
 20
3.5
 30
-54.2006
 10
-9.75321
 20
3.5
 30
-53.7995
 10
-10.455
 20
3.5
 30
-53.423
 10
-11.1575
 20
3.5
 30
-53.0434
 10
-11.8782
 20
3.5
 30
-52.6979
 10
-12.617
 20
3.5
 30
-52.3866
 10
-14.0932
 20
3.5
 30
-51.7702
 10
-15.6336
 20
3.5
 30
-51.328
 10
-17.2
 20
3.5
 30
-51.0444
  0
LINE
  5
B0E
330
A02
100
AcDbEntity
  8
Solid
100
AcDbLine
 10
-17.2
 20
3.5
 30
-51.0444
 11
-17.2
 21
3.5
 31
51.0442
  0
SPLINE
  5
B0F
330
A02
100
AcDbEntity
  8
Solid
100
AcDbSpline
210
0
220
0
230
1
 70
8
 71
3
 72
26
 73
22
 74
0
 40
0.0345203
 40
0.0345203
 40
0.0345203
 40
0.0345203
 40
0.27589
 40
0.27589
 40
0.27589
 40
0.396575
 40
0.396575
 40
0.396575
 40
0.51726
 40
0.51726
 40
0.51726
 40
0.637945
 40
0.637945
 40
0.637945
 40
0.75863
 40
0.75863
 40
0.75863
 40
0.879315
 40
0.879315
 40
0.879315
 40
1
 40
1
 40
1
 40
1
 10
-17.2
 20
3.5
 30
51.0442
 10
-15.6269
 20
3.5
 30
51.3284
 10
-14.0812
 20
3.5
 30
51.7733
 10
-12.5983
 20
3.5
 30
52.3944
 10
-11.8568
 20
3.5
 30
52.705
 10
-11.131
 20
3.5
 30
53.0596
 10
-10.4279
 20
3.5
 30
53.4376
 10
-9.72475
 20
3.5
 30
53.8155
 10
-9.04431
 20
3.5
 30
54.2168
 10
-8.3745
 20
3.5
 30
54.6075
 10
-7.70469
 20
3.5
 30
54.9982
 10
-7.04551
 20
3.5
 30
55.3782
 10
-6.3782
 20
3.5
 30
55.7063
 10
-5.71188
 20
3.5
 30
56.0366
 10
-5.03445
 20
3.5
 30
56.308
 10
-4.34591
 20
3.5
 30
56.5206
 10
-3.65818
 20
3.5
 30
56.7286
 10
-2.951
 20
3.5
 30
56.8776
 10
-2.22439
 20
3.5
 30
56.9677
 10
-1.49599
 20
3.5
 30
57.0599
 10
-0.742774
 20
3.5
 30
57.1
 10
-2.44249e-15
 20
3.5
 30
57.1
  0
ARC
  5
B10
330
A02
100
AcDbEntity
  8
Solid
100
AcDbCircle
 10
-12.5
 20
1
 30
-46.7
 40
0
100
AcDbArc
 50
0
 51
0
  0
LINE
  5
B11
330
A02
100
AcDbEntity
  8
Solid
100
AcDbLine
 10
-12.5
 20
0
 30
-44.95
 11
-12.5
 21
1
 31
-44.95
  0
ARC
  5
B12
330
A02
100
AcDbEntity
  8
Solid
100
AcDbCircle
 10
-12.5
 20
0
 30
-46.7
 40
0
100
AcDbArc
 50
0
 51
0
  0
LINE
  5
B13
330
A02
100
AcDbEntity
  8
Solid
100
AcDbLine
 10
-12.5
 20
0
 30
-48.45
 11
-12.5
 21
1
 31
-48.45
  0
ARC
  5
B14
330
A02
100
AcDbEntity
  8
Solid
100
AcDbCircle
 10
-12.5
 20
1
 30
46.7
 40
0
100
AcDbArc
 50
0
 51
0
  0
LINE
  5
B15
330
A02
100
AcDbEntity
  8
Solid
100
AcDbLine
 10
-12.5
 20
0
 30
48.45
 11
-12.5
 21
1
 31
48.45
  0
ARC
  5
B16
330
A02
100
AcDbEntity
  8
Solid
100
AcDbCircle
 10
-12.5
 20
0
 30
46.7
 40
0
100
AcDbArc
 50
0
 51
0
  0
LINE
  5
B17
330
A02
100
AcDbEntity
  8
Solid
100
AcDbLine
 10
-12.5
 20
0
 30
44.95
 11
-12.5
 21
1
 31
44.95
  0
ARC
  5
B18
330
A02
100
AcDbEntity
  8
Solid
100
AcDbCircle
 10
12.5
 20
1
 30
46.7
 40
0
100
AcDbArc
 50
0
 51
0
  0
LINE
  5
B19
330
A02
100
AcDbEntity
  8
Solid
100
AcDbLine
 10
12.5
 20
0
 30
48.45
 11
12.5
 21
1
 31
48.45
  0
ARC
  5
B1A
330
A02
100
AcDbEntity
  8
Solid
100
AcDbCircle
 10
12.5
 20
0
 30
46.7
 40
0
100
AcDbArc
 50
0
 51
0
  0
LINE
  5
B1B
330
A02
100
AcDbEntity
  8
Solid
100
AcDbLine
 10
12.5
 20
0
 30
44.95
 11
12.5
 21
1
 31
44.95
  0
ARC
  5
B1C
330
A02
100
AcDbEntity
  8
Solid
100
AcDbCircle
 10
12.5
 20
1
 30
-46.7
 40
0
100
AcDbArc
 50
0
 51
0
  0
LINE
  5
B1D
330
A02
100
AcDbEntity
  8
Solid
100
AcDbLine
 10
12.5
 20
0
 30
-44.95
 11
12.5
 21
1
 31
-44.95
  0
ARC
  5
B1E
330
A02
100
AcDbEntity
  8
Solid
100
AcDbCircle
 10
12.5
 20
0
 30
-46.7
 40
0
100
AcDbArc
 50
0
 51
0
  0
LINE
  5
B1F
330
A02
100
AcDbEntity
  8
Solid
100
AcDbLine
 10
12.5
 20
0
 30
-48.45
 11
12.5
 21
1
 31
-48.45
  0
ARC
  5
B20
330
A02
100
AcDbEntity
  8
Solid
100
AcDbCircle
 10
12.5
 20
3.5
 30
46.7
 40
0
100
AcDbArc
 50
0
 51
0
  0
LINE
  5
B21
330
A02
100
AcDbEntity
  8
Solid
100
AcDbLine
 10
12.5
 20
1
 30
48.45
 11
12.5
 21
3.5
 31
50.45
  0
ARC
  5
B22
330
A02
100
AcDbEntity
  8
Solid
100
AcDbCircle
 10
12.5
 20
1
 30
46.7
 40
0
100
AcDbArc
 50
0
 51
0
  0
LINE
  5
B23
330
A02
100
AcDbEntity
  8
Solid
100
AcDbLine
 10
12.5
 20
1
 30
44.95
 11
12.5
 21
3.5
 31
42.95
  0
ARC
  5
B24
330
A02
100
AcDbEntity
  8
Solid
100
AcDbCircle
 10
-12.5
 20
3.5
 30
46.7
 40
0
100
AcDbArc
 50
0
 51
0
  0
LINE
  5
B25
330
A02
100
AcDbEntity
  8
Solid
100
AcDbLine
 10
-12.5
 20
1
 30
48.45
 11
-12.5
 21
3.5
 31
50.45
  0
ARC
  5
B26
330
A02
100
AcDbEntity
  8
Solid
100
AcDbCircle
 10
-12.5
 20
1
 30
46.7
 40
0
100
AcDbArc
 50
0
 51
0
  0
LINE
  5
B27
330
A02
100
AcDbEntity
  8
Solid
100
AcDbLine
 10
-12.5
 20
1
 30
44.95
 11
-12.5
 21
3.5
 31
42.95
  0
ARC
  5
B28
330
A02
100
AcDbEntity
  8
Solid
100
AcDbCircle
 10
12.5
 20
3.5
 30
-46.7
 40
0
100
AcDbArc
 50
0
 51
0
  0
LINE
  5
B29
330
A02
100
AcDbEntity
  8
Solid
100
AcDbLine
 10
12.5
 20
1
 30
-44.95
 11
12.5
 21
3.5
 31
-42.95
  0
ARC
  5
B2A
330
A02
100
AcDbEntity
  8
Solid
100
AcDbCircle
 10
12.5
 20
1
 30
-46.7
 40
0
100
AcDbArc
 50
0
 51
0
  0
LINE
  5
B2B
330
A02
100
AcDbEntity
  8
Solid
100
AcDbLine
 10
12.5
 20
1
 30
-48.45
 11
12.5
 21
3.5
 31
-50.45
  0
ARC
  5
B2C
330
A02
100
AcDbEntity
  8
Solid
100
AcDbCircle
 10
-12.5
 20
3.5
 30
-46.7
 40
0
100
AcDbArc
 50
0
 51
0
  0
LINE
  5
B2D
330
A02
100
AcDbEntity
  8
Solid
100
AcDbLine
 10
-12.5
 20
1
 30
-44.95
 11
-12.5
 21
3.5
 31
-42.95
  0
ARC
  5
B2E
330
A02
100
AcDbEntity
  8
Solid
100
AcDbCircle
 10
-12.5
 20
1
 30
-46.7
 40
0
100
AcDbArc
 50
0
 51
0
  0
LINE
  5
B2F
330
A02
100
AcDbEntity
  8
Solid
100
AcDbLine
 10
-12.5
 20
1
 30
-48.45
 11
-12.5
 21
3.5
 31
-50.45
  0
ENDSEC
  0
SECTION
  2
OBJECTS
  0
DICTIONARY
  5
F000
330
0
100
AcDbDictionary
  3
ACAD_GROUP
350
F001
  0
DICTIONARY
  5
F001
330
F000
100
AcDbDictionary
  0
ENDSEC
  0
EOF