999
FreeCAD v0.19 24291 (Git)
  0
SECTION
  2
HEADER
  9
$ACADVER
  1
AC1014
  9
$ACADMAINTVER
 70
     9
  9
$DWGCODEPAGE
  3
ANSI_1252
  9
$TEXTSTYLE
  7
STANDARD
  9
$DIMSTYLE
  2
STANDARD
  9
$DIMTXSTY
  7
STANDARD
  9
$CMLSTYLE
  2
STANDARD
  9
$PEXTMAX
 10
50
 20
50
 30
50
  9
$PEXTMIN
 10
0
 20
0
 30
0
  9
$HANDSEED
  5
FFFF
  0
ENDSEC
  0
SECTION
  2
CLASSES
  0
CLASS
  1
ACDBDICTIONARYWDFLT
  2
AcDbDictionaryWithDefault
  3
ObjectDBX Classes
 90
        0
280
     0
281
     0
  0
CLASS
  1
XRECORD
  2
AcDbXrecord
  3
ObjectDBX Classes
 90
        0
280
     0
281
     0
  0
CLASS
  1
LWPOLYLINE
  2
AcDbPolyline
  3
ObjectDBX Classes
 90
        0
280
     0
281
     1
  0
ENDSEC
  0
SECTION
  2
TABLES
  0
TABLE
  2
VPORT
  5
20
330
0
100
AcDbSymbolTable
 70
     1
  0
VPORT
  5
21
330
20
100
AcDbSymbolTableRecord
100
AcDbViewportTableRecord
  2
*ACTIVE
 70
     0
  0
ENDTAB
  0
TABLE
  2
LTYPE
  5
22
330
0
100
AcDbSymbolTable
 70
     1
  0
LTYPE
  5
23
330
21
100
AcDbSymbolTableRecord
100
AcDbLinetypeTableRecord
  2
BYBLOCK
 70
     0
  3

 72
    65
 73
     0
 40
0.0
  0
LTYPE
  5
24
330
21
100
AcDbSymbolTableRecord
100
AcDbLinetypeTableRecord
  2
BYLAYER
 70
     0
  3

 72
    65
 73
     0
 40
0.0
  0
LTYPE
  5
25
330
21
100
AcDbSymbolTableRecord
100
AcDbLinetypeTableRecord
  2
CONTINUOUS
 70
     0
  3
Solid line
 72
    65
 73
     0
 40
0.0
  0
ENDTAB
  0
TABLE
  2
LAYER
  5
D00
330
0
100
AcDbSymbolTable
 70
5
  0
LAYER
  5
D01
330
D00
100
AcDbSymbolTableRecord
100
AcDbLayerTableRecord
  2
0
 70
   0
 62
   7
  6
CONTINUOUS
  0
LAYER
  5
D02
330
D00
100
AcDbSymbolTableRecord
100
AcDbLayerTableRecord
  2
none
 70
    0
 62
    7
  6
CONTINUOUS
  0
LAYER
  5
D03
330
D00
100
AcDbSymbolTableRecord
100
AcDbLayerTableRecord
  2
Solid
 70
    0
 62
    7
  6
CONTINUOUS
  0
LAYER
  5
D04
330
D00
100
AcDbSymbolTableRecord
100
AcDbLayerTableRecord
  2
Solid001
 70
    0
 62
    7
  6
CONTINUOUS
  0
LAYER
  5
D05
330
D00
100
AcDbSymbolTableRecord
100
AcDbLayerTableRecord
  2
Compound
 70
    0
 62
    7
  6
CONTINUOUS
  0
ENDTAB
  0
TABLE
  2
STYLE
  5
70
330
0
100
AcDbSymbolTable
 70
     2
  0
STYLE
  5
71
330
70
100
AcDbSymbolTableRecord
100
AcDbTextStyleTableRecord
  2
STANDARD
 70
     0
 40
0.0
 41
1.0
 50
0.0
 71
     0
 42
2.5
  3
arial.ttf
  4

  0
STYLE
  5
72
330
70
100
AcDbSymbolTableRecord
100
AcDbTextStyleTableRecord
  2
ANNOTATIVE
 70
     0
 40
0.0
 41
1.0
 50
0.0
 71
     0
 42
2.5
  3
arial.ttf
  4

  0
ENDTAB
  0
TABLE
  2
VIEW
  5
73
330
0
100
AcDbSymbolTable
 70
     0
  0
ENDTAB
  0
TABLE
  2
UCS
  5
74
330
0
100
AcDbSymbolTable
 70
     0
  0
ENDTAB
  0
TABLE
  2
APPID
  5
75
330
0
100
AcDbSymbolTable
 70
     2
  0
APPID
  5
76
330
75
100
AcDbSymbolTableRecord
100
AcDbRegAppTableRecord
  2
ACAD
 70
     0
  0
APPID
  5
77
330
75
100
AcDbSymbolTableRecord
100
AcDbRegAppTableRecord
  2
ACADANNOTATIVE
 70
     0
  0
ENDTAB
  0
TABLE
  2
DIMSTYLE
  5
78
330
0
100
AcDbSymbolTable
 70
     2
  0
DIMSTYLE
105
79
330
78
100
AcDbSymbolTableRecord
100
AcDbDimStyleTableRecord
  2
STANDARD
 70
     0
  3

  4

  5

  6

  7

 40
0.0
 41
2.5
 42
0.625
 43
3.75
 44
1.25
 45
0.0
 46
0.0
 47
0.0
 48
0.0
140
2.5
141
2.5
142
0.0
143
0.03937007874016
144
1.0
145
0.0
146
1.0
147
0.625
 71
     0
 72
     0
 73
     0
 74
     0
 75
     0
 76
     0
 77
     1
 78
     8
170
     0
171
     3
172
     1
173
     0
174
     0
175
     0
176
     0
177
     0
178
     0
270
     2
271
     2
272
     2
273
     2
274
     3
340
71
275
     0
280
     0
281
     0
282
     0
283
     0
284
     8
285
     0
286
     0
287
     3
288
     0
  0
ENDTAB
  0
TABLE
  2
BLOCK_RECORD
  5
A01
330
0
100
AcDbSymbolTable
  70
5
  0
BLOCK_RECORD
  5
A02
330
A01
100
AcDbSymbolTableRecord
100
AcDbBlockTableRecord
  2
*MODEL_SPACE
  0
BLOCK_RECORD
  5
A03
330
A01
100
AcDbSymbolTableRecord
100
AcDbBlockTableRecord
  2
*PAPER_SPACE
  0
ENDTAB
  0
ENDSEC
  0
SECTION
  2
BLOCKS
  0
BLOCK
  5
A04
330
A02
100
AcDbEntity
  8
0
100
AcDbBlockBegin
  2
*MODEL_SPACE
 70
   0
 10
0
 20
0
 30
0
  3
*MODEL_SPACE
  1
 
  0
ENDBLK
  5
A05
330
A02
100
AcDbEntity
  8
0
100
AcDbBlockEnd
  0
BLOCK
  5
A06
330
A03
100
AcDbEntity
 67
1
  8
0
100
AcDbBlockBegin
  2
*PAPER_SPACE
 70
   0
 10
0
 20
0
 30
0
  3
*PAPER_SPACE
  1
 
  0
ENDBLK
  5
A07
330
A03
100
AcDbEntity
 67
    1
  8
0
100
AcDbBlockEnd
  0
ENDSEC
  0
SECTION
  2
ENTITIES
  0
LINE
  5
A08
330
A02
100
AcDbEntity
  8
Solid
100
AcDbLine
 10
6
 20
-2.5
 30
13
 11
3.5
 21
-2.5
 31
13
  0
ARC
  5
A09
330
A02
100
AcDbEntity
  8
Solid
100
AcDbCircle
 10
3.5
 20
-2.5
 30
11
 40
4.44089e-16
100
AcDbArc
 50
-90
 51
90
  0
LINE
  5
A0A
330
A02
100
AcDbEntity
  8
Solid
100
AcDbLine
 10
6
 20
-2.5
 30
9
 11
3.5
 21
-2.5
 31
9
  0
ARC
  5
A0B
330
A02
100
AcDbEntity
  8
Solid
100
AcDbCircle
 10
6
 20
-2.5
 30
11
 40
4.44089e-16
100
AcDbArc
 50
-90
 51
90
  0
LINE
  5
A0C
330
A02
100
AcDbEntity
  8
Solid
100
AcDbLine
 10
-3.5
 20
-2.5
 30
13
 11
-6
 21
-2.5
 31
13
  0
ARC
  5
A0D
330
A02
100
AcDbEntity
  8
Solid
100
AcDbCircle
 10
-6
 20
-2.5
 30
11
 40
4.44089e-16
100
AcDbArc
 50
-90
 51
90
  0
LINE
  5
A0E
330
A02
100
AcDbEntity
  8
Solid
100
AcDbLine
 10
-3.5
 20
-2.5
 30
9
 11
-6
 21
-2.5
 31
9
  0
ARC
  5
A0F
330
A02
100
AcDbEntity
  8
Solid
100
AcDbCircle
 10
-3.5
 20
-2.5
 30
11
 40
4.44089e-16
100
AcDbArc
 50
-90
 51
90
  0
LINE
  5
A10
330
A02
100
AcDbEntity
  8
Solid
100
AcDbLine
 10
3.5
 20
2.5
 30
27.4783
 11
3.5
 21
0
 31
27.4783
  0
ARC
  5
A11
330
A02
100
AcDbEntity
  8
Solid
100
AcDbCircle
 10
0
 20
2.5
 30
33.25
 40
0
100
AcDbArc
 50
0
 51
0
  0
LINE
  5
A12
330
A02
100
AcDbEntity
  8
Solid
100
AcDbLine
 10
0
 20
0
 30
40
 11
0
 21
2.5
 31
40
  0
ARC
  5
A13
330
A02
100
AcDbEntity
  8
Solid
100
AcDbCircle
 10
0
 20
0
 30
33.25
 40
0
100
AcDbArc
 50
0
 51
0
  0
LINE
  5
A14
330
A02
100
AcDbEntity
  8
Solid
100
AcDbLine
 10
0
 20
0.2
 30
-50.75
 11
0
 21
2.5
 31
-48.75
  0
ARC
  5
A15
330
A02
100
AcDbEntity
  8
Solid
100
AcDbCircle
 10
0
 20
2.5
 30
-52.5
 40
0
100
AcDbArc
 50
180
 51
0
  0
LINE
  5
A16
330
A02
100
AcDbEntity
  8
Solid
100
AcDbLine
 10
2.14313e-16
 20
0.2
 30
-54.25
 11
4.59243e-16
 21
2.5
 31
-56.25
  0
ARC
  5
A17
330
A02
100
AcDbEntity
  8
Solid
100
AcDbCircle
 10
0
 20
0.2
 30
-52.5
 40
2.14313e-16
100
AcDbArc
 50
180
 51
0
  0
LINE
  5
A18
330
A02
100
AcDbEntity
  8
Solid
100
AcDbLine
 10
0
 20
0.2
 30
54.25
 11
0
 21
2.5
 31
56.25
  0
ARC
  5
A19
330
A02
100
AcDbEntity
  8
Solid
100
AcDbCircle
 10
0
 20
2.5
 30
52.5
 40
0
100
AcDbArc
 50
180
 51
0
  0
LINE
  5
A1A
330
A02
100
AcDbEntity
  8
Solid
100
AcDbLine
 10
2.14313e-16
 20
0.2
 30
50.75
 11
4.59243e-16
 21
2.5
 31
48.75
  0
ARC
  5
A1B
330
A02
100
AcDbEntity
  8
Solid
100
AcDbCircle
 10
0
 20
0.2
 30
52.5
 40
2.14313e-16
100
AcDbArc
 50
180
 51
0
  0
LINE
  5
A1C
330
A02
100
AcDbEntity
  8
Solid
100
AcDbLine
 10
0
 20
0
 30
-50.75
 11
0
 21
0.2
 31
-50.75
  0
ARC
  5
A1D
330
A02
100
AcDbEntity
  8
Solid
100
AcDbCircle
 10
0
 20
0.2
 30
-52.5
 40
2.14313e-16
100
AcDbArc
 50
180
 51
0
  0
LINE
  5
A1E
330
A02
100
AcDbEntity
  8
Solid
100
AcDbLine
 10
2.14313e-16
 20
0
 30
-54.25
 11
2.14313e-16
 21
0.2
 31
-54.25
  0
ARC
  5
A1F
330
A02
100
AcDbEntity
  8
Solid
100
AcDbCircle
 10
0
 20
0
 30
-52.5
 40
2.14313e-16
100
AcDbArc
 50
180
 51
0
  0
LINE
  5
A20
330
A02
100
AcDbEntity
  8
Solid
100
AcDbLine
 10
0
 20
0
 30
54.25
 11
0
 21
0.2
 31
54.25
  0
ARC
  5
A21
330
A02
100
AcDbEntity
  8
Solid
100
AcDbCircle
 10
0
 20
0.2
 30
52.5
 40
2.14313e-16
100
AcDbArc
 50
180
 51
0
  0
LINE
  5
A22
330
A02
100
AcDbEntity
  8
Solid
100
AcDbLine
 10
2.14313e-16
 20
0
 30
50.75
 11
2.14313e-16
 21
0.2
 31
50.75
  0
ARC
  5
A23
330
A02
100
AcDbEntity
  8
Solid
100
AcDbCircle
 10
0
 20
0
 30
52.5
 40
2.14313e-16
100
AcDbArc
 50
180
 51
0
  0
ARC
  5
A24
330
A02
100
AcDbEntity
  8
Solid
100
AcDbCircle
 10
0
 20
0
 30
-52.5
 40
0
100
AcDbArc
 50
0
 51
0
  0
ARC
  5
A25
330
A02
100
AcDbEntity
  8
Solid
100
AcDbCircle
 10
0
 20
0
 30
-52.5
 40
2.14313e-16
100
AcDbArc
 50
180
 51
0
  0
ARC
  5
A26
330
A02
100
AcDbEntity
  8
Solid
100
AcDbCircle
 10
0
 20
0
 30
52.5
 40
0
100
AcDbArc
 50
0
 51
0
  0
ARC
  5
A27
330
A02
100
AcDbEntity
  8
Solid
100
AcDbCircle
 10
0
 20
0
 30
52.5
 40
2.14313e-16
100
AcDbArc
 50
180
 51
0
  0
LINE
  5
A28
330
A02
100
AcDbEntity
  8
Solid
100
AcDbLine
 10
10
 20
0
 30
60
 11
10
 21
0
 31
-60
  0
LINE
  5
A29
330
A02
100
AcDbEntity
  8
Solid
100
AcDbLine
 10
-10
 20
0
 30
60
 11
10
 21
0
 31
60
  0
LINE
  5
A2A
330
A02
100
AcDbEntity
  8
Solid
100
AcDbLine
 10
-10
 20
0
 30
-60
 11
-10
 21
0
 31
60
  0
LINE
  5
A2B
330
A02
100
AcDbEntity
  8
Solid
100
AcDbLine
 10
10
 20
0
 30
-60
 11
-10
 21
0
 31
-60
  0
LINE
  5
A2C
330
A02
100
AcDbEntity
  8
Solid
100
AcDbLine
 10
-3.5
 20
0
 30
27.4783
 11
-6
 21
0
 31
27.4783
  0
ARC
  5
A2D
330
A02
100
AcDbEntity
  8
Solid
100
AcDbCircle
 10
0
 20
0
 30
33.25
 40
3.5
100
AcDbArc
 50
180
 51
180
  0
ARC
  5
A2E
330
A02
100
AcDbEntity
  8
Solid
100
AcDbCircle
 10
0
 20
0
 30
33.25
 40
0
100
AcDbArc
 50
0
 51
0
  0
LINE
  5
A2F
330
A02
100
AcDbEntity
  8
Solid
100
AcDbLine
 10
6
 20
0
 30
27.4783
 11
3.5
 21
0
 31
27.4783
  0
LINE
  5
A30
330
A02
100
AcDbEntity
  8
Solid
100
AcDbLine
 10
6
 20
0
 30
-36.5967
 11
6
 21
0
 31
27.4783
  0
LINE
  5
A31
330
A02
100
AcDbEntity
  8
Solid
100
AcDbLine
 10
3.5
 20
0
 30
-36.5967
 11
6
 21
0
 31
-36.5967
  0
LINE
  5
A32
330
A02
100
AcDbEntity
  8
Solid
100
AcDbLine
 10
3.5
 20
0
 30
-36.5
 11
3.5
 21
0
 31
-36.5967
  0
ARC
  5
A33
330
A02
100
AcDbEntity
  8
Solid
100
AcDbCircle
 10
0
 20
0
 30
-36.5
 40
3.5
100
AcDbArc
 50
180
 51
0
  0
LINE
  5
A34
330
A02
100
AcDbEntity
  8
Solid
100
AcDbLine
 10
-6
 20
0
 30
-36.5
 11
-3.5
 21
0
 31
-36.5
  0
LINE
  5
A35
330
A02
100
AcDbEntity
  8
Solid
100
AcDbLine
 10
-6
 20
0
 30
27.4783
 11
-6
 21
0
 31
-36.5
  0
LINE
  5
A36
330
A02
100
AcDbEntity
  8
Solid
100
AcDbLine
 10
10
 20
0
 30
60
 11
10
 21
0
 31
-60
  0
LINE
  5
A37
330
A02
100
AcDbEntity
  8
Solid
100
AcDbLine
 10
10
 20
2.5
 30
-60
 11
10
 21
0
 31
-60
  0
LINE
  5
A38
330
A02
100
AcDbEntity
  8
Solid
100
AcDbLine
 10
10
 20
2.5
 30
60
 11
10
 21
2.5
 31
-60
  0
LINE
  5
A39
330
A02
100
AcDbEntity
  8
Solid
100
AcDbLine
 10
10
 20
2.5
 30
60
 11
10
 21
0
 31
60
  0
LINE
  5
A3A
330
A02
100
AcDbEntity
  8
Solid
100
AcDbLine
 10
10
 20
0
 30
-60
 11
-10
 21
0
 31
-60
  0
LINE
  5
A3B
330
A02
100
AcDbEntity
  8
Solid
100
AcDbLine
 10
-10
 20
2.5
 30
-60
 11
-10
 21
0
 31
-60
  0
LINE
  5
A3C
330
A02
100
AcDbEntity
  8
Solid
100
AcDbLine
 10
10
 20
2.5
 30
-60
 11
-10
 21
2.5
 31
-60
  0
LINE
  5
A3D
330
A02
100
AcDbEntity
  8
Solid
100
AcDbLine
 10
10
 20
2.5
 30
-60
 11
10
 21
0
 31
-60
  0
LINE
  5
A3E
330
A02
100
AcDbEntity
  8
Solid
100
AcDbLine
 10
-10
 20
0
 30
-60
 11
-10
 21
0
 31
60
  0
LINE
  5
A3F
330
A02
100
AcDbEntity
  8
Solid
100
AcDbLine
 10
-10
 20
2.5
 30
60
 11
-10
 21
0
 31
60
  0
LINE
  5
A40
330
A02
100
AcDbEntity
  8
Solid
100
AcDbLine
 10
-10
 20
2.5
 30
-60
 11
-10
 21
2.5
 31
60
  0
LINE
  5
A41
330
A02
100
AcDbEntity
  8
Solid
100
AcDbLine
 10
-10
 20
2.5
 30
-60
 11
-10
 21
0
 31
-60
  0
LINE
  5
A42
330
A02
100
AcDbEntity
  8
Solid
100
AcDbLine
 10
-10
 20
0
 30
60
 11
10
 21
0
 31
60
  0
LINE
  5
A43
330
A02
100
AcDbEntity
  8
Solid
100
AcDbLine
 10
10
 20
2.5
 30
60
 11
10
 21
0
 31
60
  0
LINE
  5
A44
330
A02
100
AcDbEntity
  8
Solid
100
AcDbLine
 10
-10
 20
2.5
 30
60
 11
10
 21
2.5
 31
60
  0
LINE
  5
A45
330
A02
100
AcDbEntity
  8
Solid
100
AcDbLine
 10
-10
 20
2.5
 30
60
 11
-10
 21
0
 31
60
  0
LINE
  5
A46
330
A02
100
AcDbEntity
  8
Solid
100
AcDbLine
 10
3.5
 20
2.5
 30
27.4783
 11
3.5
 21
2.5
 31
-36.5
  0
ARC
  5
A47
330
A02
100
AcDbEntity
  8
Solid
100
AcDbCircle
 10
0
 20
2.5
 30
33.25
 40
0
100
AcDbArc
 50
0
 51
0
  0
ARC
  5
A48
330
A02
100
AcDbEntity
  8
Solid
100
AcDbCircle
 10
0
 20
2.5
 30
33.25
 40
3.5
100
AcDbArc
 50
180
 51
180
  0
LINE
  5
A49
330
A02
100
AcDbEntity
  8
Solid
100
AcDbLine
 10
-3.5
 20
2.5
 30
-36.5
 11
-3.5
 21
2.5
 31
27.4783
  0
ARC
  5
A4A
330
A02
100
AcDbEntity
  8
Solid
100
AcDbCircle
 10
0
 20
2.5
 30
-36.5
 40
3.5
100
AcDbArc
 50
180
 51
0
  0
ARC
  5
A4B
330
A02
100
AcDbEntity
  8
Solid
100
AcDbCircle
 10
0
 20
2.5
 30
52.5
 40
0
100
AcDbArc
 50
180
 51
0
  0
ARC
  5
A4C
330
A02
100
AcDbEntity
  8
Solid
100
AcDbCircle
 10
0
 20
2.5
 30
52.5
 40
4.59243e-16
100
AcDbArc
 50
0
 51
180
  0
ARC
  5
A4D
330
A02
100
AcDbEntity
  8
Solid
100
AcDbCircle
 10
0
 20
2.5
 30
-52.5
 40
0
100
AcDbArc
 50
180
 51
0
  0
ARC
  5
A4E
330
A02
100
AcDbEntity
  8
Solid
100
AcDbCircle
 10
0
 20
2.5
 30
-52.5
 40
4.59243e-16
100
AcDbArc
 50
0
 51
180
  0
LINE
  5
A4F
330
A02
100
AcDbEntity
  8
Solid
100
AcDbLine
 10
10
 20
2.5
 30
60
 11
10
 21
2.5
 31
-60
  0
LINE
  5
A50
330
A02
100
AcDbEntity
  8
Solid
100
AcDbLine
 10
10
 20
2.5
 30
-60
 11
-10
 21
2.5
 31
-60
  0
LINE
  5
A51
330
A02
100
AcDbEntity
  8
Solid
100
AcDbLine
 10
-10
 20
2.5
 30
-60
 11
-10
 21
2.5
 31
60
  0
LINE
  5
A52
330
A02
100
AcDbEntity
  8
Solid
100
AcDbLine
 10
-10
 20
2.5
 30
60
 11
10
 21
2.5
 31
60
  0
ARC
  5
A53
330
A02
100
AcDbEntity
  8
Solid
100
AcDbCircle
 10
0
 20
0.2
 30
52.5
 40
0
100
AcDbArc
 50
0
 51
0
  0
LINE
  5
A54
330
A02
100
AcDbEntity
  8
Solid
100
AcDbLine
 10
0
 20
0
 30
54.25
 11
0
 21
0.2
 31
54.25
  0
ARC
  5
A55
330
A02
100
AcDbEntity
  8
Solid
100
AcDbCircle
 10
0
 20
0
 30
52.5
 40
0
100
AcDbArc
 50
0
 51
0
  0
LINE
  5
A56
330
A02
100
AcDbEntity
  8
Solid
100
AcDbLine
 10
2.14313e-16
 20
0
 30
50.75
 11
2.14313e-16
 21
0.2
 31
50.75
  0
ARC
  5
A57
330
A02
100
AcDbEntity
  8
Solid
100
AcDbCircle
 10
0
 20
0.2
 30
-52.5
 40
0
100
AcDbArc
 50
0
 51
0
  0
LINE
  5
A58
330
A02
100
AcDbEntity
  8
Solid
100
AcDbLine
 10
0
 20
0
 30
-50.75
 11
0
 21
0.2
 31
-50.75
  0
ARC
  5
A59
330
A02
100
AcDbEntity
  8
Solid
100
AcDbCircle
 10
0
 20
0
 30
-52.5
 40
0
100
AcDbArc
 50
0
 51
0
  0
LINE
  5
A5A
330
A02
100
AcDbEntity
  8
Solid
100
AcDbLine
 10
2.14313e-16
 20
0
 30
-54.25
 11
2.14313e-16
 21
0.2
 31
-54.25
  0
ARC
  5
A5B
330
A02
100
AcDbEntity
  8
Solid
100
AcDbCircle
 10
0
 20
2.5
 30
52.5
 40
4.59243e-16
100
AcDbArc
 50
0
 51
180
  0
LINE
  5
A5C
330
A02
100
AcDbEntity
  8
Solid
100
AcDbLine
 10
0
 20
0.2
 30
54.25
 11
0
 21
2.5
 31
56.25
  0
ARC
  5
A5D
330
A02
100
AcDbEntity
  8
Solid
100
AcDbCircle
 10
0
 20
0.2
 30
52.5
 40
0
100
AcDbArc
 50
0
 51
0
  0
LINE
  5
A5E
330
A02
100
AcDbEntity
  8
Solid
100
AcDbLine
 10
2.14313e-16
 20
0.2
 30
50.75
 11
4.59243e-16
 21
2.5
 31
48.75
  0
ARC
  5
A5F
330
A02
100
AcDbEntity
  8
Solid
100
AcDbCircle
 10
0
 20
2.5
 30
-52.5
 40
4.59243e-16
100
AcDbArc
 50
0
 51
180
  0
LINE
  5
A60
330
A02
100
AcDbEntity
  8
Solid
100
AcDbLine
 10
0
 20
0.2
 30
-50.75
 11
0
 21
2.5
 31
-48.75
  0
ARC
  5
A61
330
A02
100
AcDbEntity
  8
Solid
100
AcDbCircle
 10
0
 20
0.2
 30
-52.5
 40
0
100
AcDbArc
 50
0
 51
0
  0
LINE
  5
A62
330
A02
100
AcDbEntity
  8
Solid
100
AcDbLine
 10
2.14313e-16
 20
0.2
 30
-54.25
 11
4.59243e-16
 21
2.5
 31
-56.25
  0
ARC
  5
A63
330
A02
100
AcDbEntity
  8
Solid
100
AcDbCircle
 10
0
 20
2.5
 30
33.25
 40
3.5
100
AcDbArc
 50
180
 51
180
  0
LINE
  5
A64
330
A02
100
AcDbEntity
  8
Solid
100
AcDbLine
 10
-3.5
 20
0
 30
27.4783
 11
-3.5
 21
2.5
 31
27.4783
  0
ARC
  5
A65
330
A02
100
AcDbEntity
  8
Solid
100
AcDbCircle
 10
0
 20
0
 30
33.25
 40
3.5
100
AcDbArc
 50
180
 51
180
  0
LINE
  5
A66
330
A02
100
AcDbEntity
  8
Solid
100
AcDbLine
 10
0
 20
0
 30
40
 11
0
 21
2.5
 31
40
  0
LINE
  5
A67
330
A02
100
AcDbEntity
  8
Solid
100
AcDbLine
 10
3.5
 20
0
 30
-36.5
 11
3.5
 21
2.5
 31
-36.5
  0
ARC
  5
A68
330
A02
100
AcDbEntity
  8
Solid
100
AcDbCircle
 10
0
 20
0
 30
-36.5
 40
3.5
100
AcDbArc
 50
180
 51
0
  0
LINE
  5
A69
330
A02
100
AcDbEntity
  8
Solid
100
AcDbLine
 10
-3.5
 20
2.5
 30
-36.5
 11
-3.5
 21
0
 31
-36.5
  0
ARC
  5
A6A
330
A02
100
AcDbEntity
  8
Solid
100
AcDbCircle
 10
0
 20
2.5
 30
-36.5
 40
3.5
100
AcDbArc
 50
180
 51
0
  0
ARC
  5
A6B
330
A02
100
AcDbEntity
  8
Solid
100
AcDbCircle
 10
3.5
 20
-2.5
 30
11
 40
4.44089e-16
100
AcDbArc
 50
-90
 51
90
  0
ARC
  5
A6C
330
A02
100
AcDbEntity
  8
Solid
100
AcDbCircle
 10
3.5
 20
-2.5
 30
11
 40
0
100
AcDbArc
 50
90
 51
0
  0
LINE
  5
A6D
330
A02
100
AcDbEntity
  8
Solid
100
AcDbLine
 10
3.5
 20
-3
 30
-36.5967
 11
3.5
 21
0
 31
-36.5967
  0
ARC
  5
A6E
330
A02
100
AcDbEntity
  8
Solid
100
AcDbCircle
 10
3.5
 20
-3
 30
-34.5967
 40
0
100
AcDbArc
 50
-90
 51
0
  0
LINE
  5
A6F
330
A02
100
AcDbEntity
  8
Solid
100
AcDbLine
 10
3.5
 20
-5
 30
25.4783
 11
3.5
 21
-5
 31
-34.5967
  0
ARC
  5
A70
330
A02
100
AcDbEntity
  8
Solid
100
AcDbCircle
 10
3.5
 20
-3
 30
25.4783
 40
2
100
AcDbArc
 50
-90
 51
-90
  0
LINE
  5
A71
330
A02
100
AcDbEntity
  8
Solid
100
AcDbLine
 10
3.5
 20
-3
 30
27.4783
 11
3.5
 21
0
 31
27.4783
  0
LINE
  5
A72
330
A02
100
AcDbEntity
  8
Solid
100
AcDbLine
 10
3.5
 20
2.5
 30
27.4783
 11
3.5
 21
0
 31
27.4783
  0
LINE
  5
A73
330
A02
100
AcDbEntity
  8
Solid
100
AcDbLine
 10
3.5
 20
2.5
 30
27.4783
 11
3.5
 21
2.5
 31
-36.5
  0
LINE
  5
A74
330
A02
100
AcDbEntity
  8
Solid
100
AcDbLine
 10
3.5
 20
0
 30
-36.5
 11
3.5
 21
2.5
 31
-36.5
  0
LINE
  5
A75
330
A02
100
AcDbEntity
  8
Solid
100
AcDbLine
 10
3.5
 20
0
 30
-36.5
 11
3.5
 21
0
 31
-36.5967
  0
ARC
  5
A76
330
A02
100
AcDbEntity
  8
Solid
100
AcDbCircle
 10
-3.5
 20
-2.5
 30
11
 40
0
100
AcDbArc
 50
90
 51
0
  0
ARC
  5
A77
330
A02
100
AcDbEntity
  8
Solid
100
AcDbCircle
 10
-3.5
 20
-2.5
 30
11
 40
4.44089e-16
100
AcDbArc
 50
-90
 51
90
  0
LINE
  5
A78
330
A02
100
AcDbEntity
  8
Solid
100
AcDbLine
 10
-3.5
 20
-5
 30
-34.5
 11
-3.5
 21
-5
 31
25.4783
  0
ARC
  5
A79
330
A02
100
AcDbEntity
  8
Solid
100
AcDbCircle
 10
-3.5
 20
-3
 30
-34.5
 40
2
100
AcDbArc
 50
-90
 51
-90
  0
LINE
  5
A7A
330
A02
100
AcDbEntity
  8
Solid
100
AcDbLine
 10
-3.5
 20
-3
 30
-36.5
 11
-3.5
 21
0
 31
-36.5
  0
LINE
  5
A7B
330
A02
100
AcDbEntity
  8
Solid
100
AcDbLine
 10
-3.5
 20
2.5
 30
-36.5
 11
-3.5
 21
0
 31
-36.5
  0
LINE
  5
A7C
330
A02
100
AcDbEntity
  8
Solid
100
AcDbLine
 10
-3.5
 20
2.5
 30
-36.5
 11
-3.5
 21
2.5
 31
27.4783
  0
LINE
  5
A7D
330
A02
100
AcDbEntity
  8
Solid
100
AcDbLine
 10
-3.5
 20
0
 30
27.4783
 11
-3.5
 21
2.5
 31
27.4783
  0
LINE
  5
A7E
330
A02
100
AcDbEntity
  8
Solid
100
AcDbLine
 10
-3.5
 20
-3
 30
27.4783
 11
-3.5
 21
0
 31
27.4783
  0
ARC
  5
A7F
330
A02
100
AcDbEntity
  8
Solid
100
AcDbCircle
 10
-3.5
 20
-3
 30
25.4783
 40
0
100
AcDbArc
 50
-90
 51
0
  0
LINE
  5
A80
330
A02
100
AcDbEntity
  8
Solid
100
AcDbLine
 10
6
 20
-3
 30
-36.5967
 11
6
 21
0
 31
-36.5967
  0
LINE
  5
A81
330
A02
100
AcDbEntity
  8
Solid
100
AcDbLine
 10
6
 20
-3
 30
-36.5967
 11
3.5
 21
-3
 31
-36.5967
  0
LINE
  5
A82
330
A02
100
AcDbEntity
  8
Solid
100
AcDbLine
 10
3.5
 20
-3
 30
-36.5967
 11
3.5
 21
0
 31
-36.5967
  0
LINE
  5
A83
330
A02
100
AcDbEntity
  8
Solid
100
AcDbLine
 10
3.5
 20
0
 30
-36.5967
 11
6
 21
0
 31
-36.5967
  0
ARC
  5
A84
330
A02
100
AcDbEntity
  8
Solid
100
AcDbCircle
 10
6
 20
-2.5
 30
11
 40
0
100
AcDbArc
 50
90
 51
0
  0
ARC
  5
A85
330
A02
100
AcDbEntity
  8
Solid
100
AcDbCircle
 10
6
 20
-2.5
 30
11
 40
4.44089e-16
100
AcDbArc
 50
-90
 51
90
  0
LINE
  5
A86
330
A02
100
AcDbEntity
  8
Solid
100
AcDbLine
 10
6
 20
-5
 30
-34.5967
 11
6
 21
-5
 31
25.4783
  0
ARC
  5
A87
330
A02
100
AcDbEntity
  8
Solid
100
AcDbCircle
 10
6
 20
-3
 30
-34.5967
 40
2
100
AcDbArc
 50
-90
 51
-90
  0
LINE
  5
A88
330
A02
100
AcDbEntity
  8
Solid
100
AcDbLine
 10
6
 20
-3
 30
-36.5967
 11
6
 21
0
 31
-36.5967
  0
LINE
  5
A89
330
A02
100
AcDbEntity
  8
Solid
100
AcDbLine
 10
6
 20
0
 30
-36.5967
 11
6
 21
0
 31
27.4783
  0
LINE
  5
A8A
330
A02
100
AcDbEntity
  8
Solid
100
AcDbLine
 10
6
 20
-3
 30
27.4783
 11
6
 21
0
 31
27.4783
  0
ARC
  5
A8B
330
A02
100
AcDbEntity
  8
Solid
100
AcDbCircle
 10
6
 20
-3
 30
25.4783
 40
0
100
AcDbArc
 50
-90
 51
0
  0
LINE
  5
A8C
330
A02
100
AcDbEntity
  8
Solid
100
AcDbLine
 10
3.5
 20
-3
 30
27.4783
 11
3.5
 21
0
 31
27.4783
  0
LINE
  5
A8D
330
A02
100
AcDbEntity
  8
Solid
100
AcDbLine
 10
3.5
 20
-3
 30
27.4783
 11
6
 21
-3
 31
27.4783
  0
LINE
  5
A8E
330
A02
100
AcDbEntity
  8
Solid
100
AcDbLine
 10
6
 20
-3
 30
27.4783
 11
6
 21
0
 31
27.4783
  0
LINE
  5
A8F
330
A02
100
AcDbEntity
  8
Solid
100
AcDbLine
 10
6
 20
0
 30
27.4783
 11
3.5
 21
0
 31
27.4783
  0
LINE
  5
A90
330
A02
100
AcDbEntity
  8
Solid
100
AcDbLine
 10
3.5
 20
-5
 30
25.4783
 11
3.5
 21
-5
 31
-34.5967
  0
LINE
  5
A91
330
A02
100
AcDbEntity
  8
Solid
100
AcDbLine
 10
3.5
 20
-5
 30
-34.5967
 11
6
 21
-5
 31
-34.5967
  0
LINE
  5
A92
330
A02
100
AcDbEntity
  8
Solid
100
AcDbLine
 10
6
 20
-5
 30
-34.5967
 11
6
 21
-5
 31
25.4783
  0
LINE
  5
A93
330
A02
100
AcDbEntity
  8
Solid
100
AcDbLine
 10
6
 20
-5
 30
25.4783
 11
3.5
 21
-5
 31
25.4783
  0
LINE
  5
A94
330
A02
100
AcDbEntity
  8
Solid
100
AcDbLine
 10
-6
 20
-3
 30
27.4783
 11
-6
 21
0
 31
27.4783
  0
LINE
  5
A95
330
A02
100
AcDbEntity
  8
Solid
100
AcDbLine
 10
-6
 20
-3
 30
27.4783
 11
-3.5
 21
-3
 31
27.4783
  0
LINE
  5
A96
330
A02
100
AcDbEntity
  8
Solid
100
AcDbLine
 10
-3.5
 20
-3
 30
27.4783
 11
-3.5
 21
0
 31
27.4783
  0
LINE
  5
A97
330
A02
100
AcDbEntity
  8
Solid
100
AcDbLine
 10
-3.5
 20
0
 30
27.4783
 11
-6
 21
0
 31
27.4783
  0
ARC
  5
A98
330
A02
100
AcDbEntity
  8
Solid
100
AcDbCircle
 10
-6
 20
-2.5
 30
11
 40
0
100
AcDbArc
 50
90
 51
0
  0
ARC
  5
A99
330
A02
100
AcDbEntity
  8
Solid
100
AcDbCircle
 10
-6
 20
-2.5
 30
11
 40
4.44089e-16
100
AcDbArc
 50
-90
 51
90
  0
LINE
  5
A9A
330
A02
100
AcDbEntity
  8
Solid
100
AcDbLine
 10
-6
 20
-3
 30
-36.5
 11
-6
 21
0
 31
-36.5
  0
ARC
  5
A9B
330
A02
100
AcDbEntity
  8
Solid
100
AcDbCircle
 10
-6
 20
-3
 30
-34.5
 40
0
100
AcDbArc
 50
-90
 51
0
  0
LINE
  5
A9C
330
A02
100
AcDbEntity
  8
Solid
100
AcDbLine
 10
-6
 20
-5
 30
25.4783
 11
-6
 21
-5
 31
-34.5
  0
ARC
  5
A9D
330
A02
100
AcDbEntity
  8
Solid
100
AcDbCircle
 10
-6
 20
-3
 30
25.4783
 40
2
100
AcDbArc
 50
-90
 51
-90
  0
LINE
  5
A9E
330
A02
100
AcDbEntity
  8
Solid
100
AcDbLine
 10
-6
 20
-3
 30
27.4783
 11
-6
 21
0
 31
27.4783
  0
LINE
  5
A9F
330
A02
100
AcDbEntity
  8
Solid
100
AcDbLine
 10
-6
 20
0
 30
27.4783
 11
-6
 21
0
 31
-36.5
  0
LINE
  5
AA0
330
A02
100
AcDbEntity
  8
Solid
100
AcDbLine
 10
-3.5
 20
-3
 30
-36.5
 11
-3.5
 21
0
 31
-36.5
  0
LINE
  5
AA1
330
A02
100
AcDbEntity
  8
Solid
100
AcDbLine
 10
-3.5
 20
-3
 30
-36.5
 11
-6
 21
-3
 31
-36.5
  0
LINE
  5
AA2
330
A02
100
AcDbEntity
  8
Solid
100
AcDbLine
 10
-6
 20
-3
 30
-36.5
 11
-6
 21
0
 31
-36.5
  0
LINE
  5
AA3
330
A02
100
AcDbEntity
  8
Solid
100
AcDbLine
 10
-6
 20
0
 30
-36.5
 11
-3.5
 21
0
 31
-36.5
  0
LINE
  5
AA4
330
A02
100
AcDbEntity
  8
Solid
100
AcDbLine
 10
-6
 20
-5
 30
25.4783
 11
-6
 21
-5
 31
-34.5
  0
LINE
  5
AA5
330
A02
100
AcDbEntity
  8
Solid
100
AcDbLine
 10
-6
 20
-5
 30
-34.5
 11
-3.5
 21
-5
 31
-34.5
  0
LINE
  5
AA6
330
A02
100
AcDbEntity
  8
Solid
100
AcDbLine
 10
-3.5
 20
-5
 30
-34.5
 11
-3.5
 21
-5
 31
25.4783
  0
LINE
  5
AA7
330
A02
100
AcDbEntity
  8
Solid
100
AcDbLine
 10
-3.5
 20
-5
 30
25.4783
 11
-6
 21
-5
 31
25.4783
  0
ARC
  5
AA8
330
A02
100
AcDbEntity
  8
Solid
100
AcDbCircle
 10
-6
 20
-3
 30
-34.5
 40
0
100
AcDbArc
 50
-90
 51
0
  0
LINE
  5
AA9
330
A02
100
AcDbEntity
  8
Solid
100
AcDbLine
 10
-3.5
 20
-3
 30
-36.5
 11
-6
 21
-3
 31
-36.5
  0
ARC
  5
AAA
330
A02
100
AcDbEntity
  8
Solid
100
AcDbCircle
 10
-3.5
 20
-3
 30
-34.5
 40
2
100
AcDbArc
 50
-90
 51
-90
  0
LINE
  5
AAB
330
A02
100
AcDbEntity
  8
Solid
100
AcDbLine
 10
-6
 20
-5
 30
-34.5
 11
-3.5
 21
-5
 31
-34.5
  0
ARC
  5
AAC
330
A02
100
AcDbEntity
  8
Solid
100
AcDbCircle
 10
3.5
 20
-3
 30
-34.5967
 40
0
100
AcDbArc
 50
-90
 51
0
  0
LINE
  5
AAD
330
A02
100
AcDbEntity
  8
Solid
100
AcDbLine
 10
6
 20
-3
 30
-36.5967
 11
3.5
 21
-3
 31
-36.5967
  0
ARC
  5
AAE
330
A02
100
AcDbEntity
  8
Solid
100
AcDbCircle
 10
6
 20
-3
 30
-34.5967
 40
2
100
AcDbArc
 50
-90
 51
-90
  0
LINE
  5
AAF
330
A02
100
AcDbEntity
  8
Solid
100
AcDbLine
 10
3.5
 20
-5
 30
-34.5967
 11
6
 21
-5
 31
-34.5967
  0
ARC
  5
AB0
330
A02
100
AcDbEntity
  8
Solid
100
AcDbCircle
 10
6
 20
-3
 30
25.4783
 40
0
100
AcDbArc
 50
-90
 51
0
  0
LINE
  5
AB1
330
A02
100
AcDbEntity
  8
Solid
100
AcDbLine
 10
3.5
 20
-3
 30
27.4783
 11
6
 21
-3
 31
27.4783
  0
ARC
  5
AB2
330
A02
100
AcDbEntity
  8
Solid
100
AcDbCircle
 10
3.5
 20
-3
 30
25.4783
 40
2
100
AcDbArc
 50
-90
 51
-90
  0
LINE
  5
AB3
330
A02
100
AcDbEntity
  8
Solid
100
AcDbLine
 10
6
 20
-5
 30
25.4783
 11
3.5
 21
-5
 31
25.4783
  0
ARC
  5
AB4
330
A02
100
AcDbEntity
  8
Solid
100
AcDbCircle
 10
-3.5
 20
-3
 30
25.4783
 40
0
100
AcDbArc
 50
-90
 51
0
  0
LINE
  5
AB5
330
A02
100
AcDbEntity
  8
Solid
100
AcDbLine
 10
-6
 20
-3
 30
27.4783
 11
-3.5
 21
-3
 31
27.4783
  0
ARC
  5
AB6
330
A02
100
AcDbEntity
  8
Solid
100
AcDbCircle
 10
-6
 20
-3
 30
25.4783
 40
2
100
AcDbArc
 50
-90
 51
-90
  0
LINE
  5
AB7
330
A02
100
AcDbEntity
  8
Solid
100
AcDbLine
 10
-3.5
 20
-5
 30
25.4783
 11
-6
 21
-5
 31
25.4783
  0
ARC
  5
AB8
330
A02
100
AcDbEntity
  8
Solid
100
AcDbCircle
 10
-6
 20
-2.5
 30
11
 40
0
100
AcDbArc
 50
90
 51
0
  0
LINE
  5
AB9
330
A02
100
AcDbEntity
  8
Solid
100
AcDbLine
 10
-3.5
 20
-2.5
 30
13
 11
-6
 21
-2.5
 31
13
  0
ARC
  5
ABA
330
A02
100
AcDbEntity
  8
Solid
100
AcDbCircle
 10
-3.5
 20
-2.5
 30
11
 40
0
100
AcDbArc
 50
90
 51
0
  0
LINE
  5
ABB
330
A02
100
AcDbEntity
  8
Solid
100
AcDbLine
 10
-3.5
 20
-2.5
 30
9
 11
-6
 21
-2.5
 31
9
  0
ARC
  5
ABC
330
A02
100
AcDbEntity
  8
Solid
100
AcDbCircle
 10
3.5
 20
-2.5
 30
11
 40
0
100
AcDbArc
 50
90
 51
0
  0
LINE
  5
ABD
330
A02
100
AcDbEntity
  8
Solid
100
AcDbLine
 10
6
 20
-2.5
 30
13
 11
3.5
 21
-2.5
 31
13
  0
ARC
  5
ABE
330
A02
100
AcDbEntity
  8
Solid
100
AcDbCircle
 10
6
 20
-2.5
 30
11
 40
0
100
AcDbArc
 50
90
 51
0
  0
LINE
  5
ABF
330
A02
100
AcDbEntity
  8
Solid
100
AcDbLine
 10
6
 20
-2.5
 30
9
 11
3.5
 21
-2.5
 31
9
  0
ARC
  5
AC0
330
A02
100
AcDbEntity
  8
Solid001
100
AcDbCircle
 10
6
 20
-2.5
 30
11
 40
4.44089e-16
100
AcDbArc
 50
90
 51
-90
  0
LINE
  5
AC1
330
A02
100
AcDbEntity
  8
Solid001
100
AcDbLine
 10
6
 20
-2.5
 30
9
 11
2.75
 21
-2.5
 31
9
  0
ARC
  5
AC2
330
A02
100
AcDbEntity
  8
Solid001
100
AcDbCircle
 10
2.75
 20
-2.5
 30
11
 40
0
100
AcDbArc
 50
90
 51
0
  0
LINE
  5
AC3
330
A02
100
AcDbEntity
  8
Solid001
100
AcDbLine
 10
3
 20
-1.3
 30
9.4
 11
2.75
 21
-1.3
 31
9.4
  0
ARC
  5
AC4
330
A02
100
AcDbEntity
  8
Solid001
100
AcDbCircle
 10
3
 20
-2.5
 30
11
 40
1.2
100
AcDbArc
 50
90
 51
90
  0
LINE
  5
AC5
330
A02
100
AcDbEntity
  8
Solid001
100
AcDbLine
 10
2.75
 20
-1.3
 30
12.6
 11
3
 21
-1.3
 31
12.6
  0
ARC
  5
AC6
330
A02
100
AcDbEntity
  8
Solid001
100
AcDbCircle
 10
2.75
 20
-2.5
 30
11
 40
1.2
100
AcDbArc
 50
90
 51
90
  0
LINE
  5
AC7
330
A02
100
AcDbEntity
  8
Solid001
100
AcDbLine
 10
6
 20
-2.5
 30
13
 11
2.75
 21
-2.5
 31
13
  0
ARC
  5
AC8
330
A02
100
AcDbEntity
  8
Solid001
100
AcDbCircle
 10
-2.75
 20
-2.5
 30
11
 40
0
100
AcDbArc
 50
90
 51
0
  0
LINE
  5
AC9
330
A02
100
AcDbEntity
  8
Solid001
100
AcDbLine
 10
-2.75
 20
-2.5
 30
9
 11
-6
 21
-2.5
 31
9
  0
ARC
  5
ACA
330
A02
100
AcDbEntity
  8
Solid001
100
AcDbCircle
 10
-6
 20
-2.5
 30
11
 40
0
100
AcDbArc
 50
90
 51
0
  0
LINE
  5
ACB
330
A02
100
AcDbEntity
  8
Solid001
100
AcDbLine
 10
-2.75
 20
-2.5
 30
13
 11
-6
 21
-2.5
 31
13
  0
ARC
  5
ACC
330
A02
100
AcDbEntity
  8
Solid001
100
AcDbCircle
 10
-2.75
 20
-2.5
 30
11
 40
1.2
100
AcDbArc
 50
90
 51
90
  0
LINE
  5
ACD
330
A02
100
AcDbEntity
  8
Solid001
100
AcDbLine
 10
-3
 20
-1.3
 30
12.6
 11
-2.75
 21
-1.3
 31
12.6
  0
ARC
  5
ACE
330
A02
100
AcDbEntity
  8
Solid001
100
AcDbCircle
 10
-3
 20
-2.5
 30
11
 40
1.2
100
AcDbArc
 50
90
 51
90
  0
LINE
  5
ACF
330
A02
100
AcDbEntity
  8
Solid001
100
AcDbLine
 10
-2.75
 20
-1.3
 30
9.4
 11
-3
 21
-1.3
 31
9.4
  0
SPLINE
  5
AD0
330
A02
100
AcDbEntity
  8
Solid001
100
AcDbSpline
210
0
220
0
230
1
 70
8
 71
3
 72
59
 73
55
 74
0
 40
0.0624
 40
0.0624
 40
0.0624
 40
0.0624
 40
0.0633692
 40
0.0633692
 40
0.0633692
 40
0.0643385
 40
0.0643385
 40
0.0643385
 40
0.0662769
 40
0.0662769
 40
0.0662769
 40
0.0682154
 40
0.0682154
 40
0.0682154
 40
0.0701539
 40
0.0701539
 40
0.0701539
 40
0.0740308
 40
0.0740308
 40
0.0740308
 40
0.0779077
 40
0.0779077
 40
0.0779077
 40
0.0817847
 40
0.0817847
 40
0.0817847
 40
0.0856616
 40
0.0856616
 40
0.0856616
 40
0.0934154
 40
0.0934154
 40
0.0934154
 40
0.101169
 40
0.101169
 40
0.101169
 40
0.108923
 40
0.108923
 40
0.108923
 40
0.1128
 40
0.1128
 40
0.1128
 40
0.116677
 40
0.116677
 40
0.116677
 40
0.118615
 40
0.118615
 40
0.118615
 40
0.120554
 40
0.120554
 40
0.120554
 40
0.122492
 40
0.122492
 40
0.122492
 40
0.124431
 40
0.124431
 40
0.124431
 40
0.124431
 10
-2.75
 20
-30.767
 30
26.7968
 10
-2.75
 20
-31.042
 30
26.6249
 10
-2.75
 20
-31.2928
 30
26.4257
 10
-2.75
 20
-31.5192
 30
26.1993
 10
-2.75
 20
-31.7464
 30
25.9716
 10
-2.75
 20
-31.9483
 30
25.7228
 10
-2.75
 20
-32.125
 30
25.4532
 10
-2.75
 20
-32.4763
 30
24.9188
 10
-2.75
 20
-32.7196
 30
24.3333
 10
-2.75
 20
-32.892
 30
23.7144
 10
-2.75
 20
-33.0644
 30
23.0954
 10
-2.75
 20
-33.1601
 30
22.4638
 10
-2.75
 20
-33.2089
 30
21.8255
 10
-2.75
 20
-33.2549
 30
21.1859
 10
-2.75
 20
-33.2613
 30
20.5481
 10
-2.75
 20
-33.228
 30
19.912
 10
-2.75
 20
-33.167
 30
18.6424
 10
-2.75
 20
-32.9845
 30
17.3838
 10
-2.75
 20
-32.735
 30
16.1317
 10
-2.75
 20
-32.4856
 30
14.8795
 10
-2.75
 20
-32.1689
 30
13.6449
 10
-2.75
 20
-31.8067
 30
12.4223
 10
-2.75
 20
-31.4423
 30
11.1987
 10
-2.75
 20
-31.0388
 30
9.99166
 10
-2.75
 20
-30.5964
 30
8.80125
 10
-2.75
 20
-30.1554
 30
7.61225
 10
-2.75
 20
-29.6837
 30
6.43855
 10
-2.75
 20
-29.1815
 30
5.28017
 10
-2.75
 20
-28.1768
 30
2.96353
 10
-2.75
 20
-27.0674
 30
0.699209
 10
-2.75
 20
-25.8534
 30
-1.51278
 10
-2.75
 20
-24.6441
 30
-3.72713
 10
-2.75
 20
-23.3281
 30
-5.88811
 10
-2.75
 20
-21.9053
 30
-7.99572
 10
-2.75
 20
-20.4771
 30
-10.1035
 10
-2.75
 20
-18.9509
 30
-12.1359
 10
-2.75
 20
-17.2869
 30
-14.038
 10
-2.75
 20
-16.4539
 30
-14.9891
 10
-2.75
 20
-15.5848
 30
-15.9082
 10
-2.75
 20
-14.6606
 30
-16.7785
 10
-2.75
 20
-13.7385
 30
-17.6458
 10
-2.75
 20
-12.7504
 30
-18.4777
 10
-2.75
 20
-11.6892
 30
-19.1922
 10
-2.75
 20
-11.1611
 30
-19.5511
 10
-2.75
 20
-10.6096
 30
-19.8715
 10
-2.75
 20
-10.0348
 30
-20.1535
 10
-2.75
 20
-9.45714
 30
-20.433
 10
-2.75
 20
-8.8487
 30
-20.6651
 10
-2.75
 20
-8.22673
 30
-20.8071
 10
-2.75
 20
-7.60625
 30
-20.95
 10
-2.75
 20
-6.94527
 30
-21.0042
 10
-2.75
 20
-6.30934
 30
-20.9201
 10
-2.75
 20
-5.66815
 30
-20.8374
 10
-2.75
 20
-5.04545
 30
-20.6131
 10
-2.75
 20
-4.50666
 30
-20.2537
  0
ARC
  5
AD1
330
A02
100
AcDbEntity
  8
Solid001
100
AcDbCircle
 10
-0.95
 20
-30.767
 30
26.7968
 40
1.8
100
AcDbArc
 50
90
 51
-180
  0
SPLINE
  5
AD2
330
A02
100
AcDbEntity
  8
Solid001
100
AcDbSpline
210
0
220
0
230
1
 70
8
 71
3
 72
59
 73
55
 74
0
 40
8.67362e-19
 40
8.67362e-19
 40
8.67362e-19
 40
8.67362e-19
 40
0.00087633
 40
0.00087633
 40
0.00087633
 40
0.00175266
 40
0.00175266
 40
0.00175266
 40
0.00350532
 40
0.00350532
 40
0.00350532
 40
0.00525798
 40
0.00525798
 40
0.00525798
 40
0.00701064
 40
0.00701064
 40
0.00701064
 40
0.010516
 40
0.010516
 40
0.010516
 40
0.0140213
 40
0.0140213
 40
0.0140213
 40
0.0210319
 40
0.0210319
 40
0.0210319
 40
0.0280426
 40
0.0280426
 40
0.0280426
 40
0.0350532
 40
0.0350532
 40
0.0350532
 40
0.0420639
 40
0.0420639
 40
0.0420639
 40
0.0455692
 40
0.0455692
 40
0.0455692
 40
0.0490745
 40
0.0490745
 40
0.0490745
 40
0.0508272
 40
0.0508272
 40
0.0508272
 40
0.0525798
 40
0.0525798
 40
0.0525798
 40
0.0543325
 40
0.0543325
 40
0.0543325
 40
0.0552088
 40
0.0552088
 40
0.0552088
 40
0.0560851
 40
0.0560851
 40
0.0560851
 40
0.0560851
 10
-0.95
 20
-5.67918
 30
-18.8607
 10
-0.95
 20
-5.93716
 30
-19.0014
 10
-0.95
 20
-6.2201
 30
-19.0898
 10
-0.95
 20
-6.51083
 30
-19.131
 10
-0.95
 20
-6.80201
 30
-19.1696
 10
-0.95
 20
-7.09328
 30
-19.1696
 10
-0.95
 20
-7.38466
 30
-19.1309
 10
-0.95
 20
-7.96151
 30
-19.0578
 10
-0.95
 20
-8.5154
 30
-18.8682
 10
-0.95
 20
-9.04695
 30
-18.6287
 10
-0.95
 20
-9.57606
 30
-18.3891
 10
-0.95
 20
-10.075
 30
-18.1001
 10
-0.95
 20
-10.5571
 30
-17.7833
 10
-0.95
 20
-11.0389
 30
-17.4645
 10
-0.95
 20
-11.5051
 30
-17.1222
 10
-0.95
 20
-11.9557
 30
-16.7563
 10
-0.95
 20
-12.8572
 30
-16.0288
 10
-0.95
 20
-13.6913
 30
-15.2416
 10
-0.95
 20
-14.4881
 30
-14.4214
 10
-0.95
 20
-15.2829
 30
-13.5994
 10
-0.95
 20
-16.0444
 30
-12.748
 10
-0.95
 20
-16.7724
 30
-11.867
 10
-0.95
 20
-18.2304
 30
-10.1095
 10
-0.95
 20
-19.5848
 30
-8.24784
 10
-0.95
 20
-20.8529
 30
-6.33173
 10
-0.95
 20
-22.1165
 30
-4.41706
 10
-0.95
 20
-23.2921
 30
-2.45836
 10
-0.95
 20
-24.3798
 30
-0.455639
 10
-0.95
 20
-25.4708
 30
1.5454
 10
-0.95
 20
-26.4747
 30
3.59
 10
-0.95
 20
-27.3916
 30
5.67815
 10
-0.95
 20
-28.3059
 30
7.76726
 10
-0.95
 20
-29.1321
 30
9.90162
 10
-0.95
 20
-29.8262
 30
12.1006
 10
-0.95
 20
-30.1751
 30
13.1995
 10
-0.95
 20
-30.4806
 30
14.3097
 10
-0.95
 20
-30.7428
 30
15.4312
 10
-0.95
 20
-31.0026
 30
16.5534
 10
-0.95
 20
-31.2132
 30
17.6892
 10
-0.95
 20
-31.3371
 30
18.83
 10
-0.95
 20
-31.4009
 30
19.4002
 10
-0.95
 20
-31.4376
 30
19.9729
 10
-0.95
 20
-31.4472
 30
20.5482
 10
-0.95
 20
-31.455
 30
21.1237
 10
-0.95
 20
-31.4306
 30
21.7055
 10
-0.95
 20
-31.3516
 30
22.2771
 10
-0.95
 20
-31.2727
 30
22.8462
 10
-0.95
 20
-31.1381
 30
23.4209
 10
-0.95
 20
-30.9037
 30
23.9444
 10
-0.95
 20
-30.7881
 30
24.2081
 10
-0.95
 20
-30.6404
 30
24.4554
 10
-0.95
 20
-30.4607
 30
24.6863
 10
-0.95
 20
-30.2798
 30
24.9172
 10
-0.95
 20
-30.065
 30
25.1112
 10
-0.95
 20
-29.8164
 30
25.2683
  0
SPLINE
  5
AD3
330
A02
100
AcDbEntity
  8
Solid001
100
AcDbSpline
210
0
220
0
230
1
 70
8
 71
2
 72
6
 73
3
 74
0
 40
0.112451
 40
0.112451
 40
0.112451
 40
0.112657
 40
0.112657
 40
0.112657
 10
-0.95
 20
-5.50257
 30
-18.7543
 10
-0.95
 20
-5.58849
 30
-18.8114
 10
-0.95
 20
-5.67918
 30
-18.8607
  0
ARC
  5
AD4
330
A02
100
AcDbEntity
  8
Solid001
100
AcDbCircle
 10
-0.95
 20
-4.50666
 30
-20.2537
 40
1.8
100
AcDbArc
 50
180
 51
-90
  0
SPLINE
  5
AD5
330
A02
100
AcDbEntity
  8
Solid001
100
AcDbSpline
210
0
220
0
230
1
 70
8
 71
3
 72
59
 73
55
 74
0
 40
0.0624
 40
0.0624
 40
0.0624
 40
0.0624
 40
0.0633692
 40
0.0633692
 40
0.0633692
 40
0.0643385
 40
0.0643385
 40
0.0643385
 40
0.0662769
 40
0.0662769
 40
0.0662769
 40
0.0682154
 40
0.0682154
 40
0.0682154
 40
0.0701539
 40
0.0701539
 40
0.0701539
 40
0.0740308
 40
0.0740308
 40
0.0740308
 40
0.0779077
 40
0.0779077
 40
0.0779077
 40
0.0817847
 40
0.0817847
 40
0.0817847
 40
0.0856616
 40
0.0856616
 40
0.0856616
 40
0.0934154
 40
0.0934154
 40
0.0934154
 40
0.101169
 40
0.101169
 40
0.101169
 40
0.108923
 40
0.108923
 40
0.108923
 40
0.1128
 40
0.1128
 40
0.1128
 40
0.116677
 40
0.116677
 40
0.116677
 40
0.118615
 40
0.118615
 40
0.118615
 40
0.120554
 40
0.120554
 40
0.120554
 40
0.122492
 40
0.122492
 40
0.122492
 40
0.124431
 40
0.124431
 40
0.124431
 40
0.124431
 10
2.75
 20
-30.3427
 30
27.0274
 10
2.75
 20
-30.0489
 30
27.1646
 10
2.75
 20
-29.7454
 30
27.2667
 10
2.75
 20
-29.4322
 30
27.3336
 10
2.75
 20
-29.1175
 30
27.4002
 10
2.75
 20
-28.799
 30
27.4344
 10
2.75
 20
-28.4766
 30
27.436
 10
2.75
 20
-27.8371
 30
27.44
 10
2.75
 20
-27.2135
 30
27.3257
 10
2.75
 20
-26.6003
 30
27.1337
 10
2.75
 20
-25.9872
 30
26.9416
 10
2.75
 20
-25.4051
 30
26.6783
 10
2.75
 20
-24.843
 30
26.3721
 10
2.75
 20
-24.2813
 30
26.0627
 10
2.75
 20
-23.7426
 30
25.7211
 10
2.75
 20
-23.227
 30
25.3471
 10
2.75
 20
-22.1949
 30
24.6054
 10
2.75
 20
-21.2381
 30
23.7675
 10
2.75
 20
-20.3231
 30
22.8771
 10
2.75
 20
-19.4081
 30
21.9866
 10
2.75
 20
-18.5445
 30
21.0493
 10
2.75
 20
-17.7156
 30
20.0803
 10
2.75
 20
-16.8871
 30
19.1088
 10
2.75
 20
-16.0937
 30
18.1137
 10
2.75
 20
-15.3356
 30
17.0949
 10
2.75
 20
-14.5778
 30
16.078
 10
2.75
 20
-13.8495
 30
15.0438
 10
2.75
 20
-13.1507
 30
13.9922
 10
2.75
 20
-11.7534
 30
11.889
 10
2.75
 20
-10.4569
 30
9.72634
 10
2.75
 20
-9.26124
 30
7.50439
 10
2.75
 20
-8.06104
 30
5.2851
 10
2.75
 20
-6.96367
 30
3.0053
 10
2.75
 20
-5.96913
 30
0.664973
 10
2.75
 20
-4.97743
 30
-1.68012
 10
2.75
 20
-4.10227
 30
-4.06628
 10
2.75
 20
-3.41145
 30
-6.49721
 10
2.75
 20
-3.06653
 30
-7.7136
 10
2.75
 20
-2.76806
 30
-8.94284
 10
2.75
 20
-2.5406
 30
-10.1917
 10
2.75
 20
-2.31446
 30
-11.4373
 10
2.75
 20
-2.15392
 30
-12.7189
 10
2.75
 20
-2.13167
 30
-13.9981
 10
2.75
 20
-2.11781
 30
-14.6365
 10
2.75
 20
-2.14893
 30
-15.2735
 10
2.75
 20
-2.22504
 30
-15.9092
 10
2.75
 20
-2.30471
 30
-16.546
 10
2.75
 20
-2.44096
 30
-17.1827
 10
2.75
 20
-2.66012
 30
-17.7819
 10
2.75
 20
-2.87773
 30
-18.3803
 10
2.75
 20
-3.19185
 30
-18.9644
 10
2.75
 20
-3.60835
 30
-19.4522
 10
2.75
 20
-4.02651
 30
-19.9453
 10
2.75
 20
-4.55351
 30
-20.3457
 10
2.75
 20
-5.14815
 30
-20.6023
  0
ARC
  5
AD6
330
A02
100
AcDbEntity
  8
Solid001
100
AcDbCircle
 10
0.95
 20
-30.3427
 30
27.0274
 40
1.8
100
AcDbArc
 50
-1.13086e-13
 51
90
  0
SPLINE
  5
AD7
330
A02
100
AcDbEntity
  8
Solid001
100
AcDbSpline
210
0
220
0
230
1
 70
8
 71
3
 72
59
 73
55
 74
0
 40
0
 40
0
 40
0
 40
0
 40
0.00087633
 40
0.00087633
 40
0.00087633
 40
0.00175266
 40
0.00175266
 40
0.00175266
 40
0.00350532
 40
0.00350532
 40
0.00350532
 40
0.00525798
 40
0.00525798
 40
0.00525798
 40
0.00701064
 40
0.00701064
 40
0.00701064
 40
0.010516
 40
0.010516
 40
0.010516
 40
0.0140213
 40
0.0140213
 40
0.0140213
 40
0.0210319
 40
0.0210319
 40
0.0210319
 40
0.0280426
 40
0.0280426
 40
0.0280426
 40
0.0350532
 40
0.0350532
 40
0.0350532
 40
0.0420639
 40
0.0420639
 40
0.0420639
 40
0.0455692
 40
0.0455692
 40
0.0455692
 40
0.0490745
 40
0.0490745
 40
0.0490745
 40
0.0508272
 40
0.0508272
 40
0.0508272
 40
0.0525798
 40
0.0525798
 40
0.0525798
 40
0.0543325
 40
0.0543325
 40
0.0543325
 40
0.0552088
 40
0.0552088
 40
0.0552088
 40
0.0560851
 40
0.0560851
 40
0.0560851
 40
0.0560851
 10
0.95
 20
-5.67918
 30
-18.8607
 10
0.95
 20
-5.4208
 30
-18.7208
 10
0.95
 20
-5.19273
 30
-18.5314
 10
0.95
 20
-5.00001
 30
-18.3099
 10
0.95
 20
-4.80921
 30
-18.0866
 10
0.95
 20
-4.65076
 30
-17.8422
 10
0.95
 20
-4.52467
 30
-17.5767
 10
0.95
 20
-4.27225
 30
-17.0528
 10
0.95
 20
-4.13003
 30
-16.4849
 10
0.95
 20
-4.04183
 30
-15.9086
 10
0.95
 20
-3.95509
 30
-15.3343
 10
0.95
 20
-3.92615
 30
-14.7584
 10
0.95
 20
-3.92968
 30
-14.1816
 10
0.95
 20
-3.93508
 30
-13.6039
 10
0.95
 20
-3.96873
 30
-13.0265
 10
0.95
 20
-4.03063
 30
-12.4494
 10
0.95
 20
-4.1507
 30
-11.2972
 10
0.95
 20
-4.35743
 30
-10.169
 10
0.95
 20
-4.6123
 30
-9.05429
 10
0.95
 20
-4.8696
 30
-7.94023
 10
0.95
 20
-5.16983
 30
-6.8381
 10
0.95
 20
-5.51301
 30
-5.74791
 10
0.95
 20
-6.19458
 30
-3.56847
 10
0.95
 20
-7.01989
 30
-1.41929
 10
0.95
 20
-7.93789
 30
0.687045
 10
0.95
 20
-8.85709
 30
2.7889
 10
0.95
 20
-9.8611
 30
4.84087
 10
0.95
 20
-10.9499
 30
6.84295
 10
0.95
 20
-12.0355
 30
8.84693
 10
0.95
 20
-13.205
 30
10.8016
 10
0.95
 20
-14.4584
 30
12.7068
 10
0.95
 20
-15.714
 30
14.6105
 10
0.95
 20
-17.0554
 30
16.4648
 10
0.95
 20
-18.523
 30
18.2435
 10
0.95
 20
-19.2553
 30
19.1339
 10
0.95
 20
-20.0206
 30
19.9942
 10
0.95
 20
-20.8191
 30
20.8244
 10
0.95
 20
-21.6193
 30
21.6528
 10
0.95
 20
-22.4578
 30
22.4473
 10
0.95
 20
-23.3476
 30
23.1719
 10
0.95
 20
-23.7914
 30
23.5356
 10
0.95
 20
-24.2521
 30
23.878
 10
0.95
 20
-24.7296
 30
24.199
 10
0.95
 20
-25.2082
 30
24.5185
 10
0.95
 20
-25.7096
 30
24.8146
 10
0.95
 20
-26.2323
 30
25.0593
 10
0.95
 20
-26.7527
 30
25.3026
 10
0.95
 20
-27.3081
 30
25.5023
 10
0.95
 20
-27.8749
 30
25.5904
 10
0.95
 20
-28.1591
 30
25.6369
 10
0.95
 20
-28.4469
 30
25.6475
 10
0.95
 20
-28.7385
 30
25.6223
 10
0.95
 20
-29.0306
 30
25.5961
 10
0.95
 20
-29.3102
 30
25.5214
 10
0.95
 20
-29.5773
 30
25.3983
  0
SPLINE
  5
AD8
330
A02
100
AcDbEntity
  8
Solid001
100
AcDbSpline
210
0
220
0
230
1
 70
8
 71
2
 72
6
 73
3
 74
0
 40
0.112451
 40
0.112451
 40
0.112451
 40
0.112657
 40
0.112657
 40
0.112657
 10
0.95
 20
-5.86451
 30
-18.951
 10
0.95
 20
-5.76988
 30
-18.91
 10
0.95
 20
-5.67918
 30
-18.8607
  0
ARC
  5
AD9
330
A02
100
AcDbEntity
  8
Solid001
100
AcDbCircle
 10
0.95
 20
-5.14815
 30
-20.6023
 40
1.8
100
AcDbArc
 50
-90
 51
0
  0
SPLINE
  5
ADA
330
A02
100
AcDbEntity
  8
Solid001
100
AcDbSpline
210
0
220
0
230
1
 70
8
 71
3
 72
59
 73
55
 74
0
 40
0
 40
0
 40
0
 40
0
 40
0.00087633
 40
0.00087633
 40
0.00087633
 40
0.00175266
 40
0.00175266
 40
0.00175266
 40
0.00350532
 40
0.00350532
 40
0.00350532
 40
0.00525798
 40
0.00525798
 40
0.00525798
 40
0.00701064
 40
0.00701064
 40
0.00701064
 40
0.010516
 40
0.010516
 40
0.010516
 40
0.0140213
 40
0.0140213
 40
0.0140213
 40
0.0210319
 40
0.0210319
 40
0.0210319
 40
0.0280426
 40
0.0280426
 40
0.0280426
 40
0.0350532
 40
0.0350532
 40
0.0350532
 40
0.0420639
 40
0.0420639
 40
0.0420639
 40
0.0455692
 40
0.0455692
 40
0.0455692
 40
0.0490745
 40
0.0490745
 40
0.0490745
 40
0.0508272
 40
0.0508272
 40
0.0508272
 40
0.0525798
 40
0.0525798
 40
0.0525798
 40
0.0543325
 40
0.0543325
 40
0.0543325
 40
0.0552088
 40
0.0552088
 40
0.0552088
 40
0.0560851
 40
0.0560851
 40
0.0560851
 40
0.0560851
 10
0.95
 20
-5.67918
 30
-18.8607
 10
0.95
 20
-5.4208
 30
-18.7208
 10
0.95
 20
-5.19273
 30
-18.5314
 10
0.95
 20
-5.00001
 30
-18.3099
 10
0.95
 20
-4.80921
 30
-18.0866
 10
0.95
 20
-4.65076
 30
-17.8422
 10
0.95
 20
-4.52467
 30
-17.5767
 10
0.95
 20
-4.27225
 30
-17.0528
 10
0.95
 20
-4.13003
 30
-16.4849
 10
0.95
 20
-4.04183
 30
-15.9086
 10
0.95
 20
-3.95509
 30
-15.3343
 10
0.95
 20
-3.92615
 30
-14.7584
 10
0.95
 20
-3.92968
 30
-14.1816
 10
0.95
 20
-3.93508
 30
-13.6039
 10
0.95
 20
-3.96873
 30
-13.0265
 10
0.95
 20
-4.03063
 30
-12.4494
 10
0.95
 20
-4.1507
 30
-11.2972
 10
0.95
 20
-4.35743
 30
-10.169
 10
0.95
 20
-4.6123
 30
-9.05429
 10
0.95
 20
-4.8696
 30
-7.94023
 10
0.95
 20
-5.16983
 30
-6.8381
 10
0.95
 20
-5.51301
 30
-5.74791
 10
0.95
 20
-6.19458
 30
-3.56847
 10
0.95
 20
-7.01989
 30
-1.41929
 10
0.95
 20
-7.93789
 30
0.687045
 10
0.95
 20
-8.85709
 30
2.7889
 10
0.95
 20
-9.8611
 30
4.84087
 10
0.95
 20
-10.9499
 30
6.84295
 10
0.95
 20
-12.0355
 30
8.84693
 10
0.95
 20
-13.205
 30
10.8016
 10
0.95
 20
-14.4584
 30
12.7068
 10
0.95
 20
-15.714
 30
14.6105
 10
0.95
 20
-17.0554
 30
16.4648
 10
0.95
 20
-18.523
 30
18.2435
 10
0.95
 20
-19.2553
 30
19.1339
 10
0.95
 20
-20.0206
 30
19.9942
 10
0.95
 20
-20.8191
 30
20.8244
 10
0.95
 20
-21.6193
 30
21.6528
 10
0.95
 20
-22.4578
 30
22.4473
 10
0.95
 20
-23.3476
 30
23.1719
 10
0.95
 20
-23.7914
 30
23.5356
 10
0.95
 20
-24.2521
 30
23.878
 10
0.95
 20
-24.7296
 30
24.199
 10
0.95
 20
-25.2082
 30
24.5185
 10
0.95
 20
-25.7096
 30
24.8146
 10
0.95
 20
-26.2323
 30
25.0593
 10
0.95
 20
-26.7527
 30
25.3026
 10
0.95
 20
-27.3081
 30
25.5023
 10
0.95
 20
-27.8749
 30
25.5904
 10
0.95
 20
-28.1591
 30
25.6369
 10
0.95
 20
-28.4469
 30
25.6475
 10
0.95
 20
-28.7385
 30
25.6223
 10
0.95
 20
-29.0306
 30
25.5961
 10
0.95
 20
-29.3102
 30
25.5214
 10
0.95
 20
-29.5773
 30
25.3983
  0
SPLINE
  5
ADB
330
A02
100
AcDbEntity
  8
Solid001
100
AcDbSpline
210
0
220
0
230
1
 70
8
 71
1
 72
4
 73
2
 74
0
 40
0.0560851
 40
0.0560851
 40
0.0562207
 40
0.0562207
 10
0.95
 20
-29.5773
 30
25.3983
 10
0.95
 20
-29.6987
 30
25.3368
  0
LINE
  5
ADC
330
A02
100
AcDbEntity
  8
Solid001
100
AcDbLine
 10
0.95
 20
-29.6987
 30
25.3368
 11
-0.95
 21
-29.6987
 31
25.3368
  0
SPLINE
  5
ADD
330
A02
100
AcDbEntity
  8
Solid001
100
AcDbSpline
210
0
220
0
230
1
 70
8
 71
3
 72
59
 73
55
 74
0
 40
0.0562207
 40
0.0562207
 40
0.0562207
 40
0.0562207
 40
0.0570993
 40
0.0570993
 40
0.0570993
 40
0.0579779
 40
0.0579779
 40
0.0579779
 40
0.0597351
 40
0.0597351
 40
0.0597351
 40
0.0614923
 40
0.0614923
 40
0.0614923
 40
0.0632495
 40
0.0632495
 40
0.0632495
 40
0.0667639
 40
0.0667639
 40
0.0667639
 40
0.0702784
 40
0.0702784
 40
0.0702784
 40
0.0773072
 40
0.0773072
 40
0.0773072
 40
0.0843361
 40
0.0843361
 40
0.0843361
 40
0.0913649
 40
0.0913649
 40
0.0913649
 40
0.0983938
 40
0.0983938
 40
0.0983938
 40
0.101908
 40
0.101908
 40
0.101908
 40
0.105423
 40
0.105423
 40
0.105423
 40
0.10718
 40
0.10718
 40
0.10718
 40
0.108937
 40
0.108937
 40
0.108937
 40
0.110694
 40
0.110694
 40
0.110694
 40
0.111573
 40
0.111573
 40
0.111573
 40
0.112451
 40
0.112451
 40
0.112451
 40
0.112451
 10
-0.95
 20
-29.6987
 30
25.3368
 10
-0.95
 20
-29.4392
 30
25.476
 10
-0.95
 20
-29.1637
 30
25.5658
 10
-0.95
 20
-28.8722
 30
25.6063
 10
-0.95
 20
-28.5814
 30
25.6457
 10
-0.95
 20
-28.2909
 30
25.6462
 10
-0.95
 20
-28.0005
 30
25.6079
 10
-0.95
 20
-27.4188
 30
25.5345
 10
-0.95
 20
-26.8706
 30
25.3469
 10
-0.95
 20
-26.3414
 30
25.1095
 10
-0.95
 20
-25.8106
 30
24.8694
 10
-0.95
 20
-25.3087
 30
24.5792
 10
-0.95
 20
-24.8284
 30
24.2644
 10
-0.95
 20
-24.3485
 30
23.9473
 10
-0.95
 20
-23.8847
 30
23.6073
 10
-0.95
 20
-23.4371
 30
23.2444
 10
-0.95
 20
-22.5382
 30
22.5194
 10
-0.95
 20
-21.6939
 30
21.7242
 10
-0.95
 20
-20.897
 30
20.9048
 10
-0.95
 20
-20.1009
 30
20.0819
 10
-0.95
 20
-19.3399
 30
19.2314
 10
-0.95
 20
-18.614
 30
18.3533
 10
-0.95
 20
-17.158
 30
16.6003
 10
-0.95
 20
-15.8163
 30
14.7575
 10
-0.95
 20
-14.5542
 30
12.8519
 10
-0.95
 20
-13.2927
 30
10.9467
 10
-0.95
 20
-12.1089
 30
8.9701
 10
-0.95
 20
-11.0165
 30
6.96546
 10
-0.95
 20
-9.92189
 30
4.95953
 10
-0.95
 20
-8.91619
 30
2.91361
 10
-0.95
 20
-7.99943
 30
0.827697
 10
-0.95
 20
-7.08404
 30
-1.25883
 10
-0.95
 20
-6.25952
 30
-3.38621
 10
-0.95
 20
-5.56788
 30
-5.57334
 10
-0.95
 20
-5.22206
 30
-6.6669
 10
-0.95
 20
-4.90966
 30
-7.77799
 10
-0.95
 20
-4.64916
 30
-8.89471
 10
-0.95
 20
-4.38866
 30
-10.0114
 10
-0.95
 20
-4.17733
 30
-11.1364
 10
-0.95
 20
-4.04946
 30
-12.2754
 10
-0.95
 20
-3.98371
 30
-12.8446
 10
-0.95
 20
-3.94455
 30
-13.4183
 10
-0.95
 20
-3.93198
 30
-13.9964
 10
-0.95
 20
-3.92123
 30
-14.5748
 10
-0.95
 20
-3.94227
 30
-15.154
 10
-0.95
 20
-4.01603
 30
-15.7244
 10
-0.95
 20
-4.08994
 30
-16.292
 10
-0.95
 20
-4.21623
 30
-16.8655
 10
-0.95
 20
-4.44493
 30
-17.4017
 10
-0.95
 20
-4.55866
 30
-17.667
 10
-0.95
 20
-4.69997
 30
-17.9243
 10
-0.95
 20
-4.87635
 30
-18.1575
 10
-0.95
 20
-5.05016
 30
-18.3909
 10
-0.95
 20
-5.2589
 30
-18.5898
 10
-0.95
 20
-5.50257
 30
-18.7543
  0
SPLINE
  5
ADE
330
A02
100
AcDbEntity
  8
Solid001
100
AcDbSpline
210
0
220
0
230
1
 70
8
 71
2
 72
6
 73
3
 74
0
 40
0.112451
 40
0.112451
 40
0.112451
 40
0.112657
 40
0.112657
 40
0.112657
 10
-0.95
 20
-5.50257
 30
-18.7543
 10
-0.95
 20
-5.58849
 30
-18.8114
 10
-0.95
 20
-5.67918
 30
-18.8607
  0
LINE
  5
ADF
330
A02
100
AcDbEntity
  8
Solid001
100
AcDbLine
 10
0.95
 20
-5.67918
 30
-18.8607
 11
-0.95
 21
-5.67918
 31
-18.8607
  0
ARC
  5
AE0
330
A02
100
AcDbEntity
  8
Solid001
100
AcDbCircle
 10
0
 20
-1.3
 30
33.25
 40
5
100
AcDbArc
 50
180
 51
180
  0
LINE
  5
AE1
330
A02
100
AcDbEntity
  8
Solid001
100
AcDbLine
 10
0
 20
-1.3
 30
39.5
 11
0
 21
2.5
 31
39.5
  0
ARC
  5
AE2
330
A02
100
AcDbEntity
  8
Solid001
100
AcDbCircle
 10
0
 20
2.5
 30
33.25
 40
3
100
AcDbArc
 50
180
 51
180
  0
LINE
  5
AE3
330
A02
100
AcDbEntity
  8
Solid001
100
AcDbLine
 10
-3
 20
-1.3
 30
27.7671
 11
-3
 21
2.5
 31
27.7671
  0
ARC
  5
AE4
330
A02
100
AcDbEntity
  8
Solid001
100
AcDbCircle
 10
0
 20
-1.3
 30
33.25
 40
3
100
AcDbArc
 50
180
 51
180
  0
LINE
  5
AE5
330
A02
100
AcDbEntity
  8
Solid001
100
AcDbLine
 10
3
 20
-1.3
 30
9.4
 11
3
 21
-1.3
 31
-36.5
  0
LINE
  5
AE6
330
A02
100
AcDbEntity
  8
Solid001
100
AcDbLine
 10
3
 20
-1.3
 30
9.4
 11
2.75
 21
-1.3
 31
9.4
  0
LINE
  5
AE7
330
A02
100
AcDbEntity
  8
Solid001
100
AcDbLine
 10
2.75
 20
-1.3
 30
-30.6957
 11
2.75
 21
-1.3
 31
9.4
  0
SPLINE
  5
AE8
330
A02
100
AcDbEntity
  8
Solid001
100
AcDbSpline
210
0
220
0
230
1
 70
8
 71
3
 72
14
 73
10
 74
0
 40
3.49645e-18
 40
3.49645e-18
 40
3.49645e-18
 40
3.49645e-18
 40
0.000703866
 40
0.000703866
 40
0.000703866
 40
0.00140773
 40
0.00140773
 40
0.00140773
 40
0.00281547
 40
0.00281547
 40
0.00281547
 40
0.00281547
 10
2.75
 20
-1.3
 30
-30.6957
 10
2.74968
 20
-1.3
 30
-30.9343
 10
2.70417
 20
-1.3
 30
-31.1642
 10
2.61345
 20
-1.3
 30
-31.3856
 10
2.52417
 20
-1.3
 30
-31.6028
 10
2.3913
 20
-1.3
 30
-31.8026
 10
2.22422
 20
-1.3
 30
-31.9705
 10
1.89111
 20
-1.3
 30
-32.3061
 10
1.42712
 20
-1.3
 30
-32.5011
 10
0.95
 20
-1.3
 30
-32.5
  0
LINE
  5
AE9
330
A02
100
AcDbEntity
  8
Solid001
100
AcDbLine
 10
0.95
 20
-1.3
 30
-32.5
 11
-0.95
 21
-1.3
 31
-32.5
  0
SPLINE
  5
AEA
330
A02
100
AcDbEntity
  8
Solid001
100
AcDbSpline
210
0
220
0
230
1
 70
8
 71
3
 72
14
 73
10
 74
0
 40
0
 40
0
 40
0
 40
0
 40
0.000703863
 40
0.000703863
 40
0.000703863
 40
0.00140773
 40
0.00140773
 40
0.00140773
 40
0.00281545
 40
0.00281545
 40
0.00281545
 40
0.00281545
 10
-0.95
 20
-1.3
 30
-32.5
 10
-1.18856
 20
-1.3
 30
-32.4996
 10
-1.41843
 20
-1.3
 30
-32.4538
 10
-1.6396
 20
-1.3
 30
-32.3625
 10
-1.85655
 20
-1.3
 30
-32.2727
 10
-2.05604
 20
-1.3
 30
-32.139
 10
-2.2233
 20
-1.3
 30
-31.9714
 10
-2.55775
 20
-1.3
 30
-31.6372
 10
-2.75119
 20
-1.3
 30
-31.1727
 10
-2.75
 20
-1.3
 30
-30.6957
  0
LINE
  5
AEB
330
A02
100
AcDbEntity
  8
Solid001
100
AcDbLine
 10
-2.75
 20
-1.3
 30
-30.6957
 11
-2.75
 21
-1.3
 31
9.4
  0
LINE
  5
AEC
330
A02
100
AcDbEntity
  8
Solid001
100
AcDbLine
 10
-2.75
 20
-1.3
 30
9.4
 11
-3
 21
-1.3
 31
9.4
  0
LINE
  5
AED
330
A02
100
AcDbEntity
  8
Solid001
100
AcDbLine
 10
-3
 20
-1.3
 30
-36.5
 11
-3
 21
-1.3
 31
9.4
  0
ARC
  5
AEE
330
A02
100
AcDbEntity
  8
Solid001
100
AcDbCircle
 10
0
 20
-1.3
 30
-36.5
 40
3
100
AcDbArc
 50
180
 51
0
  0
LINE
  5
AEF
330
A02
100
AcDbEntity
  8
Solid001
100
AcDbLine
 10
-3
 20
-1.3
 30
12.6
 11
-3
 21
-1.3
 31
27.7671
  0
LINE
  5
AF0
330
A02
100
AcDbEntity
  8
Solid001
100
AcDbLine
 10
-3
 20
-1.3
 30
12.6
 11
-2.75
 21
-1.3
 31
12.6
  0
LINE
  5
AF1
330
A02
100
AcDbEntity
  8
Solid001
100
AcDbLine
 10
-2.75
 20
-1.3
 30
12.6
 11
-2.75
 21
-1.3
 31
16.5358
  0
SPLINE
  5
AF2
330
A02
100
AcDbEntity
  8
Solid001
100
AcDbSpline
210
0
220
0
230
1
 70
8
 71
3
 72
17
 73
13
 74
0
 40
0
 40
0
 40
0
 40
0
 40
0.000734963
 40
0.000734963
 40
0.000734963
 40
0.00146993
 40
0.00146993
 40
0.00146993
 40
0.00220489
 40
0.00220489
 40
0.00220489
 40
0.00293985
 40
0.00293985
 40
0.00293985
 40
0.00293985
 10
-2.75
 20
-1.3
 30
16.5358
 10
-2.74991
 20
-1.3
 30
16.7849
 10
-2.70715
 20
-1.3
 30
17.0261
 10
-2.62172
 20
-1.3
 30
17.2594
 10
-2.53652
 20
-1.3
 30
17.4926
 10
-2.41215
 20
-1.3
 30
17.7033
 10
-2.24861
 20
-1.3
 30
17.8917
 10
-2.08651
 20
-1.3
 30
18.0769
 10
-1.89012
 20
-1.3
 30
18.2291
 10
-1.66584
 20
-1.3
 30
18.3365
 10
-1.44467
 20
-1.3
 30
18.4423
 10
-1.20066
 20
-1.3
 30
18.4999
 10
-0.95
 20
-1.3
 30
18.5
  0
LINE
  5
AF3
330
A02
100
AcDbEntity
  8
Solid001
100
AcDbLine
 10
0.95
 20
-1.3
 30
18.5
 11
-0.95
 21
-1.3
 31
18.5
  0
SPLINE
  5
AF4
330
A02
100
AcDbEntity
  8
Solid001
100
AcDbSpline
210
0
220
0
230
1
 70
8
 71
3
 72
14
 73
10
 74
0
 40
0
 40
0
 40
0
 40
0
 40
0.000734912
 40
0.000734912
 40
0.000734912
 40
0.00146982
 40
0.00146982
 40
0.00146982
 40
0.00293965
 40
0.00293965
 40
0.00293965
 40
0.00293965
 10
0.95
 20
-1.3
 30
18.5
 10
1.1973
 20
-1.3
 30
18.5003
 10
1.4407
 20
-1.3
 30
18.4434
 10
1.66465
 20
-1.3
 30
18.337
 10
1.88653
 20
-1.3
 30
18.2314
 10
2.08603
 20
-1.3
 30
18.077
 10
2.24789
 20
-1.3
 30
17.8925
 10
2.57415
 20
-1.3
 30
17.521
 10
2.75045
 20
-1.3
 30
17.0294
 10
2.75
 20
-1.3
 30
16.5358
  0
LINE
  5
AF5
330
A02
100
AcDbEntity
  8
Solid001
100
AcDbLine
 10
2.75
 20
-1.3
 30
12.6
 11
2.75
 21
-1.3
 31
16.5358
  0
LINE
  5
AF6
330
A02
100
AcDbEntity
  8
Solid001
100
AcDbLine
 10
2.75
 20
-1.3
 30
12.6
 11
3
 21
-1.3
 31
12.6
  0
LINE
  5
AF7
330
A02
100
AcDbEntity
  8
Solid001
100
AcDbLine
 10
3
 20
-1.3
 30
27.7671
 11
3
 21
-1.3
 31
12.6
  0
ARC
  5
AF8
330
A02
100
AcDbEntity
  8
Solid001
100
AcDbCircle
 10
0
 20
-1.3
 30
33.25
 40
5
100
AcDbArc
 50
0
 51
0
  0
LINE
  5
AF9
330
A02
100
AcDbEntity
  8
Solid001
100
AcDbLine
 10
5
 20
-1.3
 30
31.7671
 11
5
 21
-1.3
 31
37
  0
ARC
  5
AFA
330
A02
100
AcDbEntity
  8
Solid001
100
AcDbCircle
 10
1
 20
-1.3
 30
31.7671
 40
4
100
AcDbArc
 50
0
 51
0
  0
LINE
  5
AFB
330
A02
100
AcDbEntity
  8
Solid001
100
AcDbLine
 10
1
 20
-1.3
 30
27.7671
 11
-1
 21
-1.3
 31
27.7671
  0
ARC
  5
AFC
330
A02
100
AcDbEntity
  8
Solid001
100
AcDbCircle
 10
-1
 20
-1.3
 30
31.7671
 40
4.44089e-16
100
AcDbArc
 50
180
 51
0
  0
LINE
  5
AFD
330
A02
100
AcDbEntity
  8
Solid001
100
AcDbLine
 10
-5
 20
-1.3
 30
31.7671
 11
-5
 21
-1.3
 31
37
  0
ARC
  5
AFE
330
A02
100
AcDbEntity
  8
Solid001
100
AcDbCircle
 10
0
 20
-1.3
 30
33.25
 40
3
100
AcDbArc
 50
180
 51
180
  0
ARC
  5
AFF
330
A02
100
AcDbEntity
  8
Solid001
100
AcDbCircle
 10
0
 20
2.5
 30
-36.5
 40
3
100
AcDbArc
 50
180
 51
0
  0
LINE
  5
B00
330
A02
100
AcDbEntity
  8
Solid001
100
AcDbLine
 10
3
 20
-1.3
 30
-36.5
 11
3
 21
2.5
 31
-36.5
  0
ARC
  5
B01
330
A02
100
AcDbEntity
  8
Solid001
100
AcDbCircle
 10
0
 20
-1.3
 30
-36.5
 40
3
100
AcDbArc
 50
180
 51
0
  0
LINE
  5
B02
330
A02
100
AcDbEntity
  8
Solid001
100
AcDbLine
 10
-3
 20
-1.3
 30
-36.5
 11
-3
 21
2.5
 31
-36.5
  0
ARC
  5
B03
330
A02
100
AcDbEntity
  8
Solid001
100
AcDbCircle
 10
3
 20
-2.5
 30
11
 40
1.2
100
AcDbArc
 50
90
 51
90
  0
LINE
  5
B04
330
A02
100
AcDbEntity
  8
Solid001
100
AcDbLine
 10
3
 20
-1.3
 30
9.4
 11
3
 21
-1.3
 31
-36.5
  0
LINE
  5
B05
330
A02
100
AcDbEntity
  8
Solid001
100
AcDbLine
 10
3
 20
-1.3
 30
-36.5
 11
3
 21
2.5
 31
-36.5
  0
LINE
  5
B06
330
A02
100
AcDbEntity
  8
Solid001
100
AcDbLine
 10
3
 20
2.5
 30
27.7671
 11
3
 21
2.5
 31
-36.5
  0
LINE
  5
B07
330
A02
100
AcDbEntity
  8
Solid001
100
AcDbLine
 10
3
 20
-1.3
 30
27.7671
 11
3
 21
2.5
 31
27.7671
  0
LINE
  5
B08
330
A02
100
AcDbEntity
  8
Solid001
100
AcDbLine
 10
3
 20
-1.3
 30
27.7671
 11
3
 21
-1.3
 31
12.6
  0
LINE
  5
B09
330
A02
100
AcDbEntity
  8
Solid001
100
AcDbLine
 10
0
 20
-1.3
 30
39.5
 11
0
 21
2.5
 31
39.5
  0
ARC
  5
B0A
330
A02
100
AcDbEntity
  8
Solid001
100
AcDbCircle
 10
0
 20
-1.3
 30
33.25
 40
0
100
AcDbArc
 50
0
 51
0
  0
ARC
  5
B0B
330
A02
100
AcDbEntity
  8
Solid001
100
AcDbCircle
 10
0
 20
-1.3
 30
33.25
 40
5
100
AcDbArc
 50
0
 51
0
  0
LINE
  5
B0C
330
A02
100
AcDbEntity
  8
Solid001
100
AcDbLine
 10
3
 20
-1.3
 30
27.7671
 11
3
 21
2.5
 31
27.7671
  0
ARC
  5
B0D
330
A02
100
AcDbEntity
  8
Solid001
100
AcDbCircle
 10
0
 20
2.5
 30
33.25
 40
0
100
AcDbArc
 50
0
 51
0
  0
ARC
  5
B0E
330
A02
100
AcDbEntity
  8
Solid001
100
AcDbCircle
 10
-3
 20
-2.5
 30
11
 40
1.2
100
AcDbArc
 50
90
 51
90
  0
LINE
  5
B0F
330
A02
100
AcDbEntity
  8
Solid001
100
AcDbLine
 10
-3
 20
-1.3
 30
12.6
 11
-3
 21
-1.3
 31
27.7671
  0
LINE
  5
B10
330
A02
100
AcDbEntity
  8
Solid001
100
AcDbLine
 10
-3
 20
-1.3
 30
27.7671
 11
-3
 21
2.5
 31
27.7671
  0
LINE
  5
B11
330
A02
100
AcDbEntity
  8
Solid001
100
AcDbLine
 10
-3
 20
2.5
 30
-36.5
 11
-3
 21
2.5
 31
27.7671
  0
LINE
  5
B12
330
A02
100
AcDbEntity
  8
Solid001
100
AcDbLine
 10
-3
 20
-1.3
 30
-36.5
 11
-3
 21
2.5
 31
-36.5
  0
LINE
  5
B13
330
A02
100
AcDbEntity
  8
Solid001
100
AcDbLine
 10
-3
 20
-1.3
 30
-36.5
 11
-3
 21
-1.3
 31
9.4
  0
ARC
  5
B14
330
A02
100
AcDbEntity
  8
Solid001
100
AcDbCircle
 10
0
 20
2.5
 30
-36.5
 40
3
100
AcDbArc
 50
180
 51
0
  0
LINE
  5
B15
330
A02
100
AcDbEntity
  8
Solid001
100
AcDbLine
 10
-3
 20
2.5
 30
-36.5
 11
-3
 21
2.5
 31
27.7671
  0
ARC
  5
B16
330
A02
100
AcDbEntity
  8
Solid001
100
AcDbCircle
 10
0
 20
2.5
 30
33.25
 40
3
100
AcDbArc
 50
180
 51
180
  0
ARC
  5
B17
330
A02
100
AcDbEntity
  8
Solid001
100
AcDbCircle
 10
0
 20
2.5
 30
33.25
 40
0
100
AcDbArc
 50
0
 51
0
  0
LINE
  5
B18
330
A02
100
AcDbEntity
  8
Solid001
100
AcDbLine
 10
3
 20
2.5
 30
27.7671
 11
3
 21
2.5
 31
-36.5
  0
LINE
  5
B19
330
A02
100
AcDbEntity
  8
Solid001
100
AcDbLine
 10
8.88178e-16
 20
-1.3
 30
39.5
 11
-5
 21
-1.3
 31
39.5
  0
ARC
  5
B1A
330
A02
100
AcDbEntity
  8
Solid001
100
AcDbCircle
 10
0
 20
-1.3
 30
33.25
 40
5
100
AcDbArc
 50
180
 51
180
  0
LINE
  5
B1B
330
A02
100
AcDbEntity
  8
Solid001
100
AcDbLine
 10
-5
 20
-1.3
 30
39.5
 11
-5
 21
-1.3
 31
37
  0
LINE
  5
B1C
330
A02
100
AcDbEntity
  8
Solid001
100
AcDbLine
 10
1
 20
-3.55224
 30
27.7671
 11
-1
 21
-3.55224
 31
27.7671
  0
LINE
  5
B1D
330
A02
100
AcDbEntity
  8
Solid001
100
AcDbLine
 10
-1
 20
-3.55224
 30
27.7671
 11
-1
 21
-1.3
 31
27.7671
  0
LINE
  5
B1E
330
A02
100
AcDbEntity
  8
Solid001
100
AcDbLine
 10
1
 20
-1.3
 30
27.7671
 11
-1
 21
-1.3
 31
27.7671
  0
LINE
  5
B1F
330
A02
100
AcDbEntity
  8
Solid001
100
AcDbLine
 10
1
 20
-1.3
 30
27.7671
 11
1
 21
-3.55224
 31
27.7671
  0
LINE
  5
B20
330
A02
100
AcDbEntity
  8
Solid001
100
AcDbLine
 10
5
 20
-1.3
 30
39.5
 11
5
 21
-1.3
 31
37
  0
ARC
  5
B21
330
A02
100
AcDbEntity
  8
Solid001
100
AcDbCircle
 10
0
 20
-1.3
 30
33.25
 40
0
100
AcDbArc
 50
0
 51
0
  0
LINE
  5
B22
330
A02
100
AcDbEntity
  8
Solid001
100
AcDbLine
 10
5
 20
-1.3
 30
39.5
 11
8.88178e-16
 21
-1.3
 31
39.5
  0
LINE
  5
B23
330
A02
100
AcDbEntity
  8
Solid001
100
AcDbLine
 10
8.88178e-16
 20
-1.3
 30
39.5
 11
-5
 21
-1.3
 31
39.5
  0
LINE
  5
B24
330
A02
100
AcDbEntity
  8
Solid001
100
AcDbLine
 10
5
 20
-1.3
 30
39.5
 11
8.88178e-16
 21
-1.3
 31
39.5
  0
ARC
  5
B25
330
A02
100
AcDbEntity
  8
Solid001
100
AcDbCircle
 10
5
 20
18.1962
 30
39.5
 40
18.1962
100
AcDbArc
 50
-90
 51
-90
  0
LINE
  5
B26
330
A02
100
AcDbEntity
  8
Solid001
100
AcDbLine
 10
5
 20
0
 30
46.5
 11
-5
 21
0
 31
46.5
  0
ARC
  5
B27
330
A02
100
AcDbEntity
  8
Solid001
100
AcDbCircle
 10
-5
 20
18.1962
 30
39.5
 40
18.1962
100
AcDbArc
 50
-90
 51
-90
  0
LINE
  5
B28
330
A02
100
AcDbEntity
  8
Solid001
100
AcDbLine
 10
-5
 20
-2.79996
 30
47.5771
 11
-5
 21
0
 31
46.5
  0
LINE
  5
B29
330
A02
100
AcDbEntity
  8
Solid001
100
AcDbLine
 10
5
 20
-2.79996
 30
47.5771
 11
-5
 21
-2.79996
 31
47.5771
  0
LINE
  5
B2A
330
A02
100
AcDbEntity
  8
Solid001
100
AcDbLine
 10
5
 20
-2.79996
 30
47.5771
 11
5
 21
0
 31
46.5
  0
LINE
  5
B2B
330
A02
100
AcDbEntity
  8
Solid001
100
AcDbLine
 10
5
 20
0
 30
46.5
 11
-5
 21
0
 31
46.5
  0
ARC
  5
B2C
330
A02
100
AcDbEntity
  8
Solid001
100
AcDbCircle
 10
-5
 20
18.1962
 30
39.5
 40
22.4962
100
AcDbArc
 50
-90
 51
-90
  0
LINE
  5
B2D
330
A02
100
AcDbEntity
  8
Solid001
100
AcDbLine
 10
5
 20
-4.3
 30
39.5
 11
-5
 21
-4.3
 31
39.5
  0
ARC
  5
B2E
330
A02
100
AcDbEntity
  8
Solid001
100
AcDbCircle
 10
5
 20
18.1962
 30
39.5
 40
22.4962
100
AcDbArc
 50
-90
 51
-90
  0
LINE
  5
B2F
330
A02
100
AcDbEntity
  8
Solid001
100
AcDbLine
 10
5
 20
-2.79996
 30
47.5771
 11
-5
 21
-2.79996
 31
47.5771
  0
ARC
  5
B30
330
A02
100
AcDbEntity
  8
Solid001
100
AcDbCircle
 10
-5
 20
88.1236
 30
39.5
 40
92.0995
100
AcDbArc
 50
-90
 51
-90
  0
SPLINE
  5
B31
330
A02
100
AcDbEntity
  8
Solid001
100
AcDbSpline
210
0
220
0
230
1
 70
8
 71
3
 72
17
 73
13
 74
0
 40
0
 40
0
 40
0
 40
0
 40
0.00156631
 40
0.00156631
 40
0.00156631
 40
0.00313261
 40
0.00313261
 40
0.00313261
 40
0.00469892
 40
0.00469892
 40
0.00469892
 40
0.00626523
 40
0.00626523
 40
0.00626523
 40
0.00626523
 10
-5
 20
-3.97593
 30
31.7671
 10
-5.00001
 20
-3.93181
 30
31.2412
 10
-4.89712
 20
-3.88385
 30
30.7255
 10
-4.69636
 20
-3.83478
 30
30.2384
 10
-4.49799
 20
-3.78635
 30
29.7572
 10
-4.20321
 20
-3.73785
 30
29.3148
 10
-3.83239
 20
-3.69504
 30
28.9426
 10
-3.46706
 20
-3.65276
 30
28.5749
 10
-3.02006
 20
-3.61601
 30
28.2748
 10
-2.53727
 20
-3.59104
 30
28.0743
 10
-2.0565
 20
-3.566
 30
27.8736
 10
-1.52735
 20
-3.55212
 30
27.7663
 10
-1
 20
-3.55224
 30
27.7671
  0
LINE
  5
B32
330
A02
100
AcDbEntity
  8
Solid001
100
AcDbLine
 10
1
 20
-3.55224
 30
27.7671
 11
-1
 21
-3.55224
 31
27.7671
  0
SPLINE
  5
B33
330
A02
100
AcDbEntity
  8
Solid001
100
AcDbSpline
210
0
220
0
230
1
 70
8
 71
3
 72
17
 73
13
 74
0
 40
8.45678e-18
 40
8.45678e-18
 40
8.45678e-18
 40
8.45678e-18
 40
0.00156631
 40
0.00156631
 40
0.00156631
 40
0.00313261
 40
0.00313261
 40
0.00313261
 40
0.00469892
 40
0.00469892
 40
0.00469892
 40
0.00626523
 40
0.00626523
 40
0.00626523
 40
0.00626523
 10
1
 20
-3.55224
 30
27.7671
 10
1.52758
 20
-3.5522
 30
27.767
 10
2.04568
 20
-3.56565
 30
27.8708
 10
2.53403
 20
-3.59087
 30
28.0729
 10
3.01618
 20
-3.61572
 30
28.2724
 10
3.45941
 20
-3.6521
 30
28.5693
 10
3.83043
 20
-3.69482
 30
28.9406
 10
4.19737
 20
-3.73696
 30
29.3067
 10
4.49645
 20
-3.78607
 30
29.7545
 10
4.69501
 20
-3.83445
 30
30.2351
 10
4.8946
 20
-3.88291
 30
30.7156
 10
5.00068
 20
-3.93189
 30
31.2418
 10
5
 20
-3.97593
 30
31.7671
  0
ARC
  5
B34
330
A02
100
AcDbEntity
  8
Solid001
100
AcDbCircle
 10
5
 20
88.1236
 30
39.5
 40
92.0995
100
AcDbArc
 50
-90
 51
-90
  0
LINE
  5
B35
330
A02
100
AcDbEntity
  8
Solid001
100
AcDbLine
 10
5
 20
-4.3
 30
39.5
 11
-5
 21
-4.3
 31
39.5
  0
ARC
  5
B36
330
A02
100
AcDbEntity
  8
Solid001
100
AcDbCircle
 10
5
 20
88.1236
 30
39.5
 40
92.0995
100
AcDbArc
 50
-90
 51
-90
  0
LINE
  5
B37
330
A02
100
AcDbEntity
  8
Solid001
100
AcDbLine
 10
5
 20
-3.97593
 30
31.7671
 11
5
 21
-1.3
 31
31.7671
  0
LINE
  5
B38
330
A02
100
AcDbEntity
  8
Solid001
100
AcDbLine
 10
5
 20
-1.3
 30
31.7671
 11
5
 21
-1.3
 31
37
  0
LINE
  5
B39
330
A02
100
AcDbEntity
  8
Solid001
100
AcDbLine
 10
5
 20
-1.3
 30
39.5
 11
5
 21
-1.3
 31
37
  0
ARC
  5
B3A
330
A02
100
AcDbEntity
  8
Solid001
100
AcDbCircle
 10
5
 20
18.1962
 30
39.5
 40
18.1962
100
AcDbArc
 50
-90
 51
-90
  0
LINE
  5
B3B
330
A02
100
AcDbEntity
  8
Solid001
100
AcDbLine
 10
5
 20
-2.79996
 30
47.5771
 11
5
 21
0
 31
46.5
  0
ARC
  5
B3C
330
A02
100
AcDbEntity
  8
Solid001
100
AcDbCircle
 10
5
 20
18.1962
 30
39.5
 40
22.4962
100
AcDbArc
 50
-90
 51
-90
  0
LINE
  5
B3D
330
A02
100
AcDbEntity
  8
Solid001
100
AcDbLine
 10
-5
 20
-1.3
 30
31.7671
 11
-5
 21
-1.3
 31
37
  0
LINE
  5
B3E
330
A02
100
AcDbEntity
  8
Solid001
100
AcDbLine
 10
-5
 20
-1.3
 30
31.7671
 11
-5
 21
-3.97593
 31
31.7671
  0
ARC
  5
B3F
330
A02
100
AcDbEntity
  8
Solid001
100
AcDbCircle
 10
-5
 20
88.1236
 30
39.5
 40
92.0995
100
AcDbArc
 50
-90
 51
-90
  0
ARC
  5
B40
330
A02
100
AcDbEntity
  8
Solid001
100
AcDbCircle
 10
-5
 20
18.1962
 30
39.5
 40
22.4962
100
AcDbArc
 50
-90
 51
-90
  0
LINE
  5
B41
330
A02
100
AcDbEntity
  8
Solid001
100
AcDbLine
 10
-5
 20
-2.79996
 30
47.5771
 11
-5
 21
0
 31
46.5
  0
ARC
  5
B42
330
A02
100
AcDbEntity
  8
Solid001
100
AcDbCircle
 10
-5
 20
18.1962
 30
39.5
 40
18.1962
100
AcDbArc
 50
-90
 51
-90
  0
LINE
  5
B43
330
A02
100
AcDbEntity
  8
Solid001
100
AcDbLine
 10
-5
 20
-1.3
 30
39.5
 11
-5
 21
-1.3
 31
37
  0
ARC
  5
B44
330
A02
100
AcDbEntity
  8
Solid001
100
AcDbCircle
 10
-1
 20
-1.3
 30
31.7671
 40
4.44089e-16
100
AcDbArc
 50
180
 51
0
  0
LINE
  5
B45
330
A02
100
AcDbEntity
  8
Solid001
100
AcDbLine
 10
-1
 20
-3.55224
 30
27.7671
 11
-1
 21
-1.3
 31
27.7671
  0
SPLINE
  5
B46
330
A02
100
AcDbEntity
  8
Solid001
100
AcDbSpline
210
0
220
0
230
1
 70
8
 71
3
 72
17
 73
13
 74
0
 40
0
 40
0
 40
0
 40
0
 40
0.00156631
 40
0.00156631
 40
0.00156631
 40
0.00313261
 40
0.00313261
 40
0.00313261
 40
0.00469892
 40
0.00469892
 40
0.00469892
 40
0.00626523
 40
0.00626523
 40
0.00626523
 40
0.00626523
 10
-5
 20
-3.97593
 30
31.7671
 10
-5.00001
 20
-3.93181
 30
31.2412
 10
-4.89712
 20
-3.88385
 30
30.7255
 10
-4.69636
 20
-3.83478
 30
30.2384
 10
-4.49799
 20
-3.78635
 30
29.7572
 10
-4.20321
 20
-3.73785
 30
29.3148
 10
-3.83239
 20
-3.69504
 30
28.9426
 10
-3.46706
 20
-3.65276
 30
28.5749
 10
-3.02006
 20
-3.61601
 30
28.2748
 10
-2.53727
 20
-3.59104
 30
28.0743
 10
-2.0565
 20
-3.566
 30
27.8736
 10
-1.52735
 20
-3.55212
 30
27.7663
 10
-1
 20
-3.55224
 30
27.7671
  0
LINE
  5
B47
330
A02
100
AcDbEntity
  8
Solid001
100
AcDbLine
 10
-5
 20
-1.3
 30
31.7671
 11
-5
 21
-3.97593
 31
31.7671
  0
ARC
  5
B48
330
A02
100
AcDbEntity
  8
Solid001
100
AcDbCircle
 10
1
 20
-1.3
 30
31.7671
 40
4
100
AcDbArc
 50
0
 51
0
  0
LINE
  5
B49
330
A02
100
AcDbEntity
  8
Solid001
100
AcDbLine
 10
5
 20
-3.97593
 30
31.7671
 11
5
 21
-1.3
 31
31.7671
  0
SPLINE
  5
B4A
330
A02
100
AcDbEntity
  8
Solid001
100
AcDbSpline
210
0
220
0
230
1
 70
8
 71
3
 72
17
 73
13
 74
0
 40
8.45678e-18
 40
8.45678e-18
 40
8.45678e-18
 40
8.45678e-18
 40
0.00156631
 40
0.00156631
 40
0.00156631
 40
0.00313261
 40
0.00313261
 40
0.00313261
 40
0.00469892
 40
0.00469892
 40
0.00469892
 40
0.00626523
 40
0.00626523
 40
0.00626523
 40
0.00626523
 10
1
 20
-3.55224
 30
27.7671
 10
1.52758
 20
-3.5522
 30
27.767
 10
2.04568
 20
-3.56565
 30
27.8708
 10
2.53403
 20
-3.59087
 30
28.0729
 10
3.01618
 20
-3.61572
 30
28.2724
 10
3.45941
 20
-3.6521
 30
28.5693
 10
3.83043
 20
-3.69482
 30
28.9406
 10
4.19737
 20
-3.73696
 30
29.3067
 10
4.49645
 20
-3.78607
 30
29.7545
 10
4.69501
 20
-3.83445
 30
30.2351
 10
4.8946
 20
-3.88291
 30
30.7156
 10
5.00068
 20
-3.93189
 30
31.2418
 10
5
 20
-3.97593
 30
31.7671
  0
LINE
  5
B4B
330
A02
100
AcDbEntity
  8
Solid001
100
AcDbLine
 10
1
 20
-1.3
 30
27.7671
 11
1
 21
-3.55224
 31
27.7671
  0
ARC
  5
B4C
330
A02
100
AcDbEntity
  8
Solid001
100
AcDbCircle
 10
2.75
 20
-2.5
 30
11
 40
1.2
100
AcDbArc
 50
90
 51
90
  0
LINE
  5
B4D
330
A02
100
AcDbEntity
  8
Solid001
100
AcDbLine
 10
2.75
 20
-1.3
 30
12.6
 11
2.75
 21
-1.3
 31
16.5358
  0
SPLINE
  5
B4E
330
A02
100
AcDbEntity
  8
Solid001
100
AcDbSpline
210
0
220
0
230
1
 70
8
 71
3
 72
92
 73
88
 74
0
 40
0
 40
0
 40
0
 40
0
 40
0.00335128
 40
0.00335128
 40
0.00335128
 40
0.00502691
 40
0.00502691
 40
0.00502691
 40
0.00670255
 40
0.00670255
 40
0.00670255
 40
0.0100538
 40
0.0100538
 40
0.0100538
 40
0.0134051
 40
0.0134051
 40
0.0134051
 40
0.0201077
 40
0.0201077
 40
0.0201077
 40
0.0268102
 40
0.0268102
 40
0.0268102
 40
0.0301615
 40
0.0301615
 40
0.0301615
 40
0.0318371
 40
0.0318371
 40
0.0318371
 40
0.0326749
 40
0.0326749
 40
0.0326749
 40
0.0335128
 40
0.0335128
 40
0.0335128
 40
0.0343506
 40
0.0343506
 40
0.0343506
 40
0.0351884
 40
0.0351884
 40
0.0351884
 40
0.036864
 40
0.036864
 40
0.036864
 40
0.0385397
 40
0.0385397
 40
0.0385397
 40
0.0402153
 40
0.0402153
 40
0.0402153
 40
0.0435666
 40
0.0435666
 40
0.0435666
 40
0.0469179
 40
0.0469179
 40
0.0469179
 40
0.0536204
 40
0.0536204
 40
0.0536204
 40
0.060323
 40
0.060323
 40
0.060323
 40
0.0670255
 40
0.0670255
 40
0.0670255
 40
0.0737281
 40
0.0737281
 40
0.0737281
 40
0.0804306
 40
0.0804306
 40
0.0804306
 40
0.0871332
 40
0.0871332
 40
0.0871332
 40
0.0938357
 40
0.0938357
 40
0.0938357
 40
0.100538
 40
0.100538
 40
0.100538
 40
0.10389
 40
0.10389
 40
0.10389
 40
0.105565
 40
0.105565
 40
0.105565
 40
0.107241
 40
0.107241
 40
0.107241
 40
0.107241
 10
2.75
 20
-1.3
 30
16.5358
 10
2.75
 20
-2.33626
 30
16.1098
 10
2.75
 20
-3.42116
 30
15.8079
 10
2.75
 20
-4.51518
 30
15.7232
 10
2.75
 20
-5.06389
 30
15.6791
 10
2.75
 20
-5.61762
 30
15.6867
 10
2.75
 20
-6.17636
 30
15.7462
 10
2.75
 20
-6.73179
 30
15.8073
 10
2.75
 20
-7.27523
 30
15.9132
 10
2.75
 20
-7.80666
 30
16.064
 10
2.75
 20
-8.8687
 30
16.3613
 10
2.75
 20
-9.89912
 30
16.8234
 10
2.75
 20
-10.8719
 30
17.3529
 10
2.75
 20
-11.847
 30
17.8833
 10
2.75
 20
-12.7815
 30
18.4866
 10
2.75
 20
-13.6974
 30
19.1187
 10
2.75
 20
-15.5277
 30
20.3849
 10
2.75
 20
-17.282
 30
21.7558
 10
2.75
 20
-19.0672
 30
23.0841
 10
2.75
 20
-20.8502
 30
24.4107
 10
2.75
 20
-22.6621
 30
25.7194
 10
2.75
 20
-24.579
 30
26.8377
 10
2.75
 20
-25.5376
 30
27.3938
 10
2.75
 20
-26.5202
 30
27.9032
 10
2.75
 20
-27.5584
 30
28.3048
 10
2.75
 20
-28.0778
 30
28.5049
 10
2.75
 20
-28.6163
 30
28.6782
 10
2.75
 20
-29.1623
 30
28.7963
 10
2.75
 20
-29.4352
 30
28.8563
 10
2.75
 20
-29.7109
 30
28.8997
 10
2.75
 20
-29.9895
 30
28.9266
 10
2.75
 20
-30.2701
 30
28.9542
 10
2.75
 20
-30.551
 30
28.9572
 10
2.75
 20
-30.8322
 30
28.9357
 10
2.75
 20
-31.1109
 30
28.9126
 10
2.75
 20
-31.3884
 30
28.8599
 10
2.75
 20
-31.6557
 30
28.764
 10
2.75
 20
-31.9217
 30
28.6689
 10
2.75
 20
-32.1657
 30
28.5328
 10
2.75
 20
-32.3875
 30
28.3556
 10
2.75
 20
-32.8294
 30
28.0016
 10
2.75
 20
-33.1438
 30
27.513
 10
2.75
 20
-33.3743
 30
27.0053
 10
2.75
 20
-33.604
 30
26.498
 10
2.75
 20
-33.7601
 30
25.9493
 10
2.75
 20
-33.8697
 30
25.4048
 10
2.75
 20
-33.976
 30
24.8605
 10
2.75
 20
-34.0456
 30
24.3151
 10
2.75
 20
-34.0785
 30
23.7687
 10
2.75
 20
-34.15
 30
22.6759
 10
2.75
 20
-34.11
 30
21.5799
 10
2.75
 20
-34.007
 30
20.482
 10
2.75
 20
-33.9035
 30
19.3823
 10
2.75
 20
-33.7347
 30
18.2857
 10
2.75
 20
-33.5239
 30
17.2056
 10
2.75
 20
-33.1003
 30
15.0431
 10
2.75
 20
-32.5089
 30
12.9201
 10
2.75
 20
-31.8137
 30
10.8224
 10
2.75
 20
-31.1175
 30
8.72537
 10
2.75
 20
-30.3216
 30
6.67834
 10
2.75
 20
-29.4523
 30
4.66811
 10
2.75
 20
-28.5811
 30
2.65884
 10
2.75
 20
-27.6414
 30
0.683911
 10
2.75
 20
-26.6333
 30
-1.25669
 10
2.75
 20
-25.6265
 30
-3.19788
 10
2.75
 20
-24.5589
 30
-5.10864
 10
2.75
 20
-23.4306
 30
-6.98895
 10
2.75
 20
-22.3037
 30
-8.86858
 10
2.75
 20
-21.1155
 30
-10.7231
 10
2.75
 20
-19.8725
 30
-12.5403
 10
2.75
 20
-18.6315
 30
-14.3567
 10
2.75
 20
-17.3372
 30
-16.1282
 10
2.75
 20
-15.9894
 30
-17.8546
 10
2.75
 20
-14.6406
 30
-19.5802
 10
2.75
 20
-13.2366
 30
-21.2593
 10
2.75
 20
-11.7565
 30
-22.8743
 10
2.75
 20
-10.2752
 30
-24.4866
 10
2.75
 20
-8.72317
 30
-26.0457
 10
2.75
 20
-7.0247
 30
-27.4733
 10
2.75
 20
-6.17455
 30
-28.1841
 10
2.75
 20
-5.2974
 30
-28.8547
 10
2.75
 20
-4.36257
 30
-29.4394
 10
2.75
 20
-3.89478
 30
-29.7312
 10
2.75
 20
-3.41247
 30
-30.0013
 10
2.75
 20
-2.90139
 30
-30.2287
 10
2.75
 20
-2.38831
 30
-30.4534
 10
2.75
 20
-1.86195
 30
-30.6422
 10
2.75
 20
-1.3
 30
-30.6957
  0
LINE
  5
B4F
330
A02
100
AcDbEntity
  8
Solid001
100
AcDbLine
 10
2.75
 20
-1.3
 30
-30.6957
 11
2.75
 21
-1.3
 31
9.4
  0
ARC
  5
B50
330
A02
100
AcDbEntity
  8
Solid001
100
AcDbCircle
 10
2.75
 20
-2.5
 30
11
 40
0
100
AcDbArc
 50
90
 51
0
  0
ARC
  5
B51
330
A02
100
AcDbEntity
  8
Solid001
100
AcDbCircle
 10
2.75
 20
-2.5
 30
11
 40
4.44089e-16
100
AcDbArc
 50
-90
 51
90
  0
SPLINE
  5
B52
330
A02
100
AcDbEntity
  8
Solid001
100
AcDbSpline
210
0
220
0
230
1
 70
8
 71
3
 72
56
 73
52
 74
0
 40
0.00036541
 40
0.00036541
 40
0.00036541
 40
0.00036541
 40
0.0013347
 40
0.0013347
 40
0.0013347
 40
0.00230399
 40
0.00230399
 40
0.00230399
 40
0.00424257
 40
0.00424257
 40
0.00424257
 40
0.00618115
 40
0.00618115
 40
0.00618115
 40
0.00811973
 40
0.00811973
 40
0.00811973
 40
0.0119969
 40
0.0119969
 40
0.0119969
 40
0.0158741
 40
0.0158741
 40
0.0158741
 40
0.0236284
 40
0.0236284
 40
0.0236284
 40
0.0313827
 40
0.0313827
 40
0.0313827
 40
0.039137
 40
0.039137
 40
0.039137
 40
0.0468914
 40
0.0468914
 40
0.0468914
 40
0.0507685
 40
0.0507685
 40
0.0507685
 40
0.0546457
 40
0.0546457
 40
0.0546457
 40
0.0565843
 40
0.0565843
 40
0.0565843
 40
0.0585228
 40
0.0585228
 40
0.0585228
 40
0.0604614
 40
0.0604614
 40
0.0604614
 40
0.0624
 40
0.0624
 40
0.0624
 40
0.0624
 10
2.75
 20
-5.14815
 30
-20.6023
 10
2.75
 20
-5.44501
 30
-20.7303
 10
2.75
 20
-5.74969
 30
-20.8232
 10
2.75
 20
-6.06219
 30
-20.8809
 10
2.75
 20
-6.3766
 30
-20.9389
 10
2.75
 20
-6.69547
 30
-20.9651
 10
2.75
 20
-7.01879
 30
-20.9593
 10
2.75
 20
-7.65959
 30
-20.9487
 10
2.75
 20
-8.29111
 30
-20.8195
 10
2.75
 20
-8.90086
 30
-20.6179
 10
2.75
 20
-9.50772
 30
-20.4169
 10
2.75
 20
-10.0825
 30
-20.1486
 10
2.75
 20
-10.6377
 30
-19.8394
 10
2.75
 20
-11.1929
 30
-19.5303
 10
2.75
 20
-11.7302
 30
-19.1777
 10
2.75
 20
-12.2439
 30
-18.8038
 10
2.75
 20
-13.2714
 30
-18.056
 10
2.75
 20
-14.2182
 30
-17.2198
 10
2.75
 20
-15.1215
 30
-16.336
 10
2.75
 20
-16.0241
 30
-15.4525
 10
2.75
 20
-16.8835
 30
-14.517
 10
2.75
 20
-17.708
 30
-13.5508
 10
2.75
 20
-19.3534
 30
-11.6195
 10
2.75
 20
-20.8462
 30
-9.58971
 10
2.75
 20
-22.2405
 30
-7.49621
 10
2.75
 20
-23.6319
 30
-5.40086
 10
2.75
 20
-24.9253
 30
-3.24229
 10
2.75
 20
-26.1209
 30
-1.0205
 10
2.75
 20
-27.3173
 30
1.19925
 10
2.75
 20
-28.4253
 30
3.48988
 10
2.75
 20
-29.4079
 30
5.80905
 10
2.75
 20
-30.3898
 30
8.13088
 10
2.75
 20
-31.2575
 30
10.4916
 10
2.75
 20
-31.9491
 30
12.9122
 10
2.75
 20
-32.2941
 30
14.1227
 10
2.75
 20
-32.5941
 30
15.3486
 10
2.75
 20
-32.8246
 30
16.5982
 10
2.75
 20
-33.0545
 30
17.8505
 10
2.75
 20
-33.2163
 30
19.1208
 10
2.75
 20
-33.2446
 30
20.3872
 10
2.75
 20
-33.2617
 30
21.0213
 10
2.75
 20
-33.2348
 30
21.6569
 10
2.75
 20
-33.1639
 30
22.2939
 10
2.75
 20
-33.0896
 30
22.9311
 10
2.75
 20
-32.9626
 30
23.5579
 10
2.75
 20
-32.7527
 30
24.1603
 10
2.75
 20
-32.5421
 30
24.765
 10
2.75
 20
-32.2443
 30
25.3456
 10
2.75
 20
-31.8404
 30
25.843
 10
2.75
 20
-31.4341
 30
26.3447
 10
2.75
 20
-30.9298
 30
26.7518
 10
2.75
 20
-30.3427
 30
27.0274
  0
SPLINE
  5
B53
330
A02
100
AcDbEntity
  8
Solid001
100
AcDbSpline
210
0
220
0
230
1
 70
8
 71
3
 72
59
 73
55
 74
0
 40
0.0624
 40
0.0624
 40
0.0624
 40
0.0624
 40
0.0633692
 40
0.0633692
 40
0.0633692
 40
0.0643385
 40
0.0643385
 40
0.0643385
 40
0.0662769
 40
0.0662769
 40
0.0662769
 40
0.0682154
 40
0.0682154
 40
0.0682154
 40
0.0701539
 40
0.0701539
 40
0.0701539
 40
0.0740308
 40
0.0740308
 40
0.0740308
 40
0.0779077
 40
0.0779077
 40
0.0779077
 40
0.0817847
 40
0.0817847
 40
0.0817847
 40
0.0856616
 40
0.0856616
 40
0.0856616
 40
0.0934154
 40
0.0934154
 40
0.0934154
 40
0.101169
 40
0.101169
 40
0.101169
 40
0.108923
 40
0.108923
 40
0.108923
 40
0.1128
 40
0.1128
 40
0.1128
 40
0.116677
 40
0.116677
 40
0.116677
 40
0.118615
 40
0.118615
 40
0.118615
 40
0.120554
 40
0.120554
 40
0.120554
 40
0.122492
 40
0.122492
 40
0.122492
 40
0.124431
 40
0.124431
 40
0.124431
 40
0.124431
 10
2.75
 20
-30.3427
 30
27.0274
 10
2.75
 20
-30.0489
 30
27.1646
 10
2.75
 20
-29.7454
 30
27.2667
 10
2.75
 20
-29.4322
 30
27.3336
 10
2.75
 20
-29.1175
 30
27.4002
 10
2.75
 20
-28.799
 30
27.4344
 10
2.75
 20
-28.4766
 30
27.436
 10
2.75
 20
-27.8371
 30
27.44
 10
2.75
 20
-27.2135
 30
27.3257
 10
2.75
 20
-26.6003
 30
27.1337
 10
2.75
 20
-25.9872
 30
26.9416
 10
2.75
 20
-25.4051
 30
26.6783
 10
2.75
 20
-24.843
 30
26.3721
 10
2.75
 20
-24.2813
 30
26.0627
 10
2.75
 20
-23.7426
 30
25.7211
 10
2.75
 20
-23.227
 30
25.3471
 10
2.75
 20
-22.1949
 30
24.6054
 10
2.75
 20
-21.2381
 30
23.7675
 10
2.75
 20
-20.3231
 30
22.8771
 10
2.75
 20
-19.4081
 30
21.9866
 10
2.75
 20
-18.5445
 30
21.0493
 10
2.75
 20
-17.7156
 30
20.0803
 10
2.75
 20
-16.8871
 30
19.1088
 10
2.75
 20
-16.0937
 30
18.1137
 10
2.75
 20
-15.3356
 30
17.0949
 10
2.75
 20
-14.5778
 30
16.078
 10
2.75
 20
-13.8495
 30
15.0438
 10
2.75
 20
-13.1507
 30
13.9922
 10
2.75
 20
-11.7534
 30
11.889
 10
2.75
 20
-10.4569
 30
9.72634
 10
2.75
 20
-9.26124
 30
7.50439
 10
2.75
 20
-8.06104
 30
5.2851
 10
2.75
 20
-6.96367
 30
3.0053
 10
2.75
 20
-5.96913
 30
0.664973
 10
2.75
 20
-4.97743
 30
-1.68012
 10
2.75
 20
-4.10227
 30
-4.06628
 10
2.75
 20
-3.41145
 30
-6.49721
 10
2.75
 20
-3.06653
 30
-7.7136
 10
2.75
 20
-2.76806
 30
-8.94284
 10
2.75
 20
-2.5406
 30
-10.1917
 10
2.75
 20
-2.31446
 30
-11.4373
 10
2.75
 20
-2.15392
 30
-12.7189
 10
2.75
 20
-2.13167
 30
-13.9981
 10
2.75
 20
-2.11781
 30
-14.6365
 10
2.75
 20
-2.14893
 30
-15.2735
 10
2.75
 20
-2.22504
 30
-15.9092
 10
2.75
 20
-2.30471
 30
-16.546
 10
2.75
 20
-2.44096
 30
-17.1827
 10
2.75
 20
-2.66012
 30
-17.7819
 10
2.75
 20
-2.87773
 30
-18.3803
 10
2.75
 20
-3.19185
 30
-18.9644
 10
2.75
 20
-3.60835
 30
-19.4522
 10
2.75
 20
-4.02651
 30
-19.9453
 10
2.75
 20
-4.55351
 30
-20.3457
 10
2.75
 20
-5.14815
 30
-20.6023
  0
SPLINE
  5
B54
330
A02
100
AcDbEntity
  8
Solid001
100
AcDbSpline
210
0
220
0
230
1
 70
8
 71
3
 72
56
 73
52
 74
0
 40
0.00036541
 40
0.00036541
 40
0.00036541
 40
0.00036541
 40
0.0013347
 40
0.0013347
 40
0.0013347
 40
0.00230399
 40
0.00230399
 40
0.00230399
 40
0.00424257
 40
0.00424257
 40
0.00424257
 40
0.00618115
 40
0.00618115
 40
0.00618115
 40
0.00811973
 40
0.00811973
 40
0.00811973
 40
0.0119969
 40
0.0119969
 40
0.0119969
 40
0.0158741
 40
0.0158741
 40
0.0158741
 40
0.0236284
 40
0.0236284
 40
0.0236284
 40
0.0313827
 40
0.0313827
 40
0.0313827
 40
0.039137
 40
0.039137
 40
0.039137
 40
0.0468914
 40
0.0468914
 40
0.0468914
 40
0.0507685
 40
0.0507685
 40
0.0507685
 40
0.0546457
 40
0.0546457
 40
0.0546457
 40
0.0565843
 40
0.0565843
 40
0.0565843
 40
0.0585228
 40
0.0585228
 40
0.0585228
 40
0.0604614
 40
0.0604614
 40
0.0604614
 40
0.0624
 40
0.0624
 40
0.0624
 40
0.0624
 10
-2.75
 20
-4.50666
 30
-20.2537
 10
-2.75
 20
-4.23778
 30
-20.0742
 10
-2.75
 20
-3.99412
 30
-19.8691
 10
-2.75
 20
-3.77568
 30
-19.6383
 10
-2.75
 20
-3.55596
 30
-19.406
 10
-2.75
 20
-3.36058
 30
-19.1527
 10
-2.75
 20
-3.18954
 30
-18.8782
 10
-2.75
 20
-2.84984
 30
-18.3348
 10
-2.75
 20
-2.61472
 30
-17.7346
 10
-2.75
 20
-2.4522
 30
-17.1133
 10
-2.75
 20
-2.29074
 30
-16.4947
 10
-2.75
 20
-2.20322
 30
-15.8665
 10
-2.75
 20
-2.16059
 30
-15.2325
 10
-2.75
 20
-2.11796
 30
-14.5984
 10
-2.75
 20
-2.12155
 30
-13.9558
 10
-2.75
 20
-2.15581
 30
-13.3213
 10
-2.75
 20
-2.22432
 30
-12.0524
 10
-2.75
 20
-2.41094
 30
-10.803
 10
-2.75
 20
-2.66119
 30
-9.5643
 10
-2.75
 20
-2.9115
 30
-8.32638
 10
-2.75
 20
-3.22902
 30
-7.09631
 10
-2.75
 20
-3.59118
 30
-5.87891
 10
-2.75
 20
-4.31666
 30
-3.44767
 10
-2.75
 20
-5.20776
 30
-1.09082
 10
-2.75
 20
-6.20596
 30
1.21791
 10
-2.75
 20
-7.20726
 30
3.52525
 10
-2.75
 20
-8.31487
 30
5.78483
 10
-2.75
 20
-9.52879
 30
7.99665
 10
-2.75
 20
-10.7405
 30
10.2081
 10
-2.75
 20
-12.0599
 30
12.3839
 10
-2.75
 20
-13.4713
 30
14.4699
 10
-2.75
 20
-14.8854
 30
16.5569
 10
-2.75
 20
-16.3942
 30
18.5692
 10
-2.75
 20
-18.0492
 30
20.4662
 10
-2.75
 20
-18.8773
 30
21.4142
 10
-2.75
 20
-19.7427
 30
22.3329
 10
-2.75
 20
-20.6658
 30
23.206
 10
-2.75
 20
-21.5916
 30
24.0801
 10
-2.75
 20
-22.5694
 30
24.9069
 10
-2.75
 20
-23.6167
 30
25.6196
 10
-2.75
 20
-24.1394
 30
25.9789
 10
-2.75
 20
-24.6874
 30
26.302
 10
-2.75
 20
-25.2605
 30
26.5891
 10
-2.75
 20
-25.8356
 30
26.8734
 10
-2.75
 20
-26.4306
 30
27.1078
 10
-2.75
 20
-27.0502
 30
27.2593
 10
-2.75
 20
-27.6722
 30
27.4116
 10
-2.75
 20
-28.3214
 30
27.4776
 10
-2.75
 20
-28.9585
 30
27.4092
 10
-2.75
 20
-29.6004
 30
27.3412
 10
-2.75
 20
-30.2164
 30
27.1395
 10
-2.75
 20
-30.767
 30
26.7968
  0
SPLINE
  5
B55
330
A02
100
AcDbEntity
  8
Solid001
100
AcDbSpline
210
0
220
0
230
1
 70
8
 71
3
 72
59
 73
55
 74
0
 40
0.0624
 40
0.0624
 40
0.0624
 40
0.0624
 40
0.0633692
 40
0.0633692
 40
0.0633692
 40
0.0643385
 40
0.0643385
 40
0.0643385
 40
0.0662769
 40
0.0662769
 40
0.0662769
 40
0.0682154
 40
0.0682154
 40
0.0682154
 40
0.0701539
 40
0.0701539
 40
0.0701539
 40
0.0740308
 40
0.0740308
 40
0.0740308
 40
0.0779077
 40
0.0779077
 40
0.0779077
 40
0.0817847
 40
0.0817847
 40
0.0817847
 40
0.0856616
 40
0.0856616
 40
0.0856616
 40
0.0934154
 40
0.0934154
 40
0.0934154
 40
0.101169
 40
0.101169
 40
0.101169
 40
0.108923
 40
0.108923
 40
0.108923
 40
0.1128
 40
0.1128
 40
0.1128
 40
0.116677
 40
0.116677
 40
0.116677
 40
0.118615
 40
0.118615
 40
0.118615
 40
0.120554
 40
0.120554
 40
0.120554
 40
0.122492
 40
0.122492
 40
0.122492
 40
0.124431
 40
0.124431
 40
0.124431
 40
0.124431
 10
-2.75
 20
-30.767
 30
26.7968
 10
-2.75
 20
-31.042
 30
26.6249
 10
-2.75
 20
-31.2928
 30
26.4257
 10
-2.75
 20
-31.5192
 30
26.1993
 10
-2.75
 20
-31.7464
 30
25.9716
 10
-2.75
 20
-31.9483
 30
25.7228
 10
-2.75
 20
-32.125
 30
25.4532
 10
-2.75
 20
-32.4763
 30
24.9188
 10
-2.75
 20
-32.7196
 30
24.3333
 10
-2.75
 20
-32.892
 30
23.7144
 10
-2.75
 20
-33.0644
 30
23.0954
 10
-2.75
 20
-33.1601
 30
22.4638
 10
-2.75
 20
-33.2089
 30
21.8255
 10
-2.75
 20
-33.2549
 30
21.1859
 10
-2.75
 20
-33.2613
 30
20.5481
 10
-2.75
 20
-33.228
 30
19.912
 10
-2.75
 20
-33.167
 30
18.6424
 10
-2.75
 20
-32.9845
 30
17.3838
 10
-2.75
 20
-32.735
 30
16.1317
 10
-2.75
 20
-32.4856
 30
14.8795
 10
-2.75
 20
-32.1689
 30
13.6449
 10
-2.75
 20
-31.8067
 30
12.4223
 10
-2.75
 20
-31.4423
 30
11.1987
 10
-2.75
 20
-31.0388
 30
9.99166
 10
-2.75
 20
-30.5964
 30
8.80125
 10
-2.75
 20
-30.1554
 30
7.61225
 10
-2.75
 20
-29.6837
 30
6.43855
 10
-2.75
 20
-29.1815
 30
5.28017
 10
-2.75
 20
-28.1768
 30
2.96353
 10
-2.75
 20
-27.0674
 30
0.699209
 10
-2.75
 20
-25.8534
 30
-1.51278
 10
-2.75
 20
-24.6441
 30
-3.72713
 10
-2.75
 20
-23.3281
 30
-5.88811
 10
-2.75
 20
-21.9053
 30
-7.99572
 10
-2.75
 20
-20.4771
 30
-10.1035
 10
-2.75
 20
-18.9509
 30
-12.1359
 10
-2.75
 20
-17.2869
 30
-14.038
 10
-2.75
 20
-16.4539
 30
-14.9891
 10
-2.75
 20
-15.5848
 30
-15.9082
 10
-2.75
 20
-14.6606
 30
-16.7785
 10
-2.75
 20
-13.7385
 30
-17.6458
 10
-2.75
 20
-12.7504
 30
-18.4777
 10
-2.75
 20
-11.6892
 30
-19.1922
 10
-2.75
 20
-11.1611
 30
-19.5511
 10
-2.75
 20
-10.6096
 30
-19.8715
 10
-2.75
 20
-10.0348
 30
-20.1535
 10
-2.75
 20
-9.45714
 30
-20.433
 10
-2.75
 20
-8.8487
 30
-20.6651
 10
-2.75
 20
-8.22673
 30
-20.8071
 10
-2.75
 20
-7.60625
 30
-20.95
 10
-2.75
 20
-6.94527
 30
-21.0042
 10
-2.75
 20
-6.30934
 30
-20.9201
 10
-2.75
 20
-5.66815
 30
-20.8374
 10
-2.75
 20
-5.04545
 30
-20.6131
 10
-2.75
 20
-4.50666
 30
-20.2537
  0
LINE
  5
B56
330
A02
100
AcDbEntity
  8
Solid001
100
AcDbLine
 10
-2.75
 20
-1.3
 30
12.6
 11
-2.75
 21
-1.3
 31
16.5358
  0
ARC
  5
B57
330
A02
100
AcDbEntity
  8
Solid001
100
AcDbCircle
 10
-2.75
 20
-2.5
 30
11
 40
1.2
100
AcDbArc
 50
90
 51
90
  0
ARC
  5
B58
330
A02
100
AcDbEntity
  8
Solid001
100
AcDbCircle
 10
-2.75
 20
-2.5
 30
11
 40
4.44089e-16
100
AcDbArc
 50
-90
 51
90
  0
ARC
  5
B59
330
A02
100
AcDbEntity
  8
Solid001
100
AcDbCircle
 10
-2.75
 20
-2.5
 30
11
 40
0
100
AcDbArc
 50
90
 51
0
  0
LINE
  5
B5A
330
A02
100
AcDbEntity
  8
Solid001
100
AcDbLine
 10
-2.75
 20
-1.3
 30
-30.6957
 11
-2.75
 21
-1.3
 31
9.4
  0
SPLINE
  5
B5B
330
A02
100
AcDbEntity
  8
Solid001
100
AcDbSpline
210
0
220
0
230
1
 70
8
 71
3
 72
92
 73
88
 74
0
 40
0
 40
0
 40
0
 40
0
 40
0.00166832
 40
0.00166832
 40
0.00166832
 40
0.00333664
 40
0.00333664
 40
0.00333664
 40
0.00667327
 40
0.00667327
 40
0.00667327
 40
0.0133465
 40
0.0133465
 40
0.0133465
 40
0.0200198
 40
0.0200198
 40
0.0200198
 40
0.0266931
 40
0.0266931
 40
0.0266931
 40
0.0333664
 40
0.0333664
 40
0.0333664
 40
0.0400396
 40
0.0400396
 40
0.0400396
 40
0.0467129
 40
0.0467129
 40
0.0467129
 40
0.0533862
 40
0.0533862
 40
0.0533862
 40
0.0600594
 40
0.0600594
 40
0.0600594
 40
0.0633961
 40
0.0633961
 40
0.0633961
 40
0.0667327
 40
0.0667327
 40
0.0667327
 40
0.068401
 40
0.068401
 40
0.068401
 40
0.0700694
 40
0.0700694
 40
0.0700694
 40
0.0717377
 40
0.0717377
 40
0.0717377
 40
0.0725718
 40
0.0725718
 40
0.0725718
 40
0.073406
 40
0.073406
 40
0.073406
 40
0.0742401
 40
0.0742401
 40
0.0742401
 40
0.0750743
 40
0.0750743
 40
0.0750743
 40
0.0767426
 40
0.0767426
 40
0.0767426
 40
0.0800793
 40
0.0800793
 40
0.0800793
 40
0.0867525
 40
0.0867525
 40
0.0867525
 40
0.0934258
 40
0.0934258
 40
0.0934258
 40
0.0967624
 40
0.0967624
 40
0.0967624
 40
0.100099
 40
0.100099
 40
0.100099
 40
0.101767
 40
0.101767
 40
0.101767
 40
0.103436
 40
0.103436
 40
0.103436
 40
0.106772
 40
0.106772
 40
0.106772
 40
0.106772
 10
-2.75
 20
-1.3
 30
-30.6957
 10
-2.75
 20
-1.86195
 30
-30.6422
 10
-2.75
 20
-2.38831
 30
-30.4534
 10
-2.75
 20
-2.90139
 30
-30.2287
 10
-2.75
 20
-3.41247
 30
-30.0013
 10
-2.75
 20
-3.89478
 30
-29.7312
 10
-2.75
 20
-4.36257
 30
-29.4394
 10
-2.75
 20
-5.2974
 30
-28.8547
 10
-2.75
 20
-6.17455
 30
-28.1841
 10
-2.75
 20
-7.0247
 30
-27.4733
 10
-2.75
 20
-8.72317
 30
-26.0457
 10
-2.75
 20
-10.2752
 30
-24.4866
 10
-2.75
 20
-11.7565
 30
-22.8743
 10
-2.75
 20
-13.2366
 30
-21.2593
 10
-2.75
 20
-14.6406
 30
-19.5802
 10
-2.75
 20
-15.9894
 30
-17.8546
 10
-2.75
 20
-17.3372
 30
-16.1282
 10
-2.75
 20
-18.6315
 30
-14.3567
 10
-2.75
 20
-19.8725
 30
-12.5403
 10
-2.75
 20
-21.1155
 30
-10.7231
 10
-2.75
 20
-22.3037
 30
-8.86858
 10
-2.75
 20
-23.4306
 30
-6.98895
 10
-2.75
 20
-24.5589
 30
-5.10864
 10
-2.75
 20
-25.6265
 30
-3.19788
 10
-2.75
 20
-26.6333
 30
-1.25669
 10
-2.75
 20
-27.6414
 30
0.683911
 10
-2.75
 20
-28.5811
 30
2.65884
 10
-2.75
 20
-29.4523
 30
4.66811
 10
-2.75
 20
-30.3216
 30
6.67834
 10
-2.75
 20
-31.1175
 30
8.72537
 10
-2.75
 20
-31.8137
 30
10.8224
 10
-2.75
 20
-32.5089
 30
12.9201
 10
-2.75
 20
-33.1003
 30
15.0431
 10
-2.75
 20
-33.5239
 30
17.2056
 10
-2.75
 20
-33.7347
 30
18.2857
 10
-2.75
 20
-33.9035
 30
19.3823
 10
-2.75
 20
-34.007
 30
20.482
 10
-2.75
 20
-34.11
 30
21.5799
 10
-2.75
 20
-34.15
 30
22.6759
 10
-2.75
 20
-34.0785
 30
23.7687
 10
-2.75
 20
-34.0456
 30
24.3151
 10
-2.75
 20
-33.976
 30
24.8605
 10
-2.75
 20
-33.8697
 30
25.4048
 10
-2.75
 20
-33.7601
 30
25.9493
 10
-2.75
 20
-33.604
 30
26.498
 10
-2.75
 20
-33.3743
 30
27.0053
 10
-2.75
 20
-33.1438
 30
27.513
 10
-2.75
 20
-32.8294
 30
28.0016
 10
-2.75
 20
-32.3875
 30
28.3556
 10
-2.75
 20
-32.1657
 30
28.5328
 10
-2.75
 20
-31.9217
 30
28.6689
 10
-2.75
 20
-31.6557
 30
28.764
 10
-2.75
 20
-31.3884
 30
28.8599
 10
-2.75
 20
-31.1109
 30
28.9126
 10
-2.75
 20
-30.8322
 30
28.9357
 10
-2.75
 20
-30.551
 30
28.9572
 10
-2.75
 20
-30.2701
 30
28.9542
 10
-2.75
 20
-29.9895
 30
28.9266
 10
-2.75
 20
-29.7109
 30
28.8997
 10
-2.75
 20
-29.4352
 30
28.8563
 10
-2.75
 20
-29.1623
 30
28.7963
 10
-2.75
 20
-28.6163
 30
28.6782
 10
-2.75
 20
-28.0778
 30
28.5049
 10
-2.75
 20
-27.5584
 30
28.3048
 10
-2.75
 20
-26.5202
 30
27.9032
 10
-2.75
 20
-25.5376
 30
27.3938
 10
-2.75
 20
-24.579
 30
26.8377
 10
-2.75
 20
-22.6621
 30
25.7194
 10
-2.75
 20
-20.8502
 30
24.4107
 10
-2.75
 20
-19.0672
 30
23.0841
 10
-2.75
 20
-17.282
 30
21.7558
 10
-2.75
 20
-15.5277
 30
20.3849
 10
-2.75
 20
-13.6974
 30
19.1187
 10
-2.75
 20
-12.7815
 30
18.4866
 10
-2.75
 20
-11.847
 30
17.8833
 10
-2.75
 20
-10.8719
 30
17.3529
 10
-2.75
 20
-9.89912
 30
16.8234
 10
-2.75
 20
-8.8687
 30
16.3613
 10
-2.75
 20
-7.80666
 30
16.064
 10
-2.75
 20
-7.27523
 30
15.9132
 10
-2.75
 20
-6.73179
 30
15.8073
 10
-2.75
 20
-6.17636
 30
15.7462
 10
-2.75
 20
-5.61762
 30
15.6867
 10
-2.75
 20
-5.06389
 30
15.6791
 10
-2.75
 20
-4.51518
 30
15.7232
 10
-2.75
 20
-3.42116
 30
15.8079
 10
-2.75
 20
-2.33626
 30
16.1098
 10
-2.75
 20
-1.3
 30
16.5358
  0
SPLINE
  5
B5C
330
A02
100
AcDbEntity
  8
Solid001
100
AcDbSpline
210
0
220
0
230
1
 70
8
 71
3
 72
104
 73
100
 74
0
 40
-6e-08
 40
-6e-08
 40
-6e-08
 40
-6e-08
 40
0.0017509
 40
0.0017509
 40
0.0017509
 40
0.00350185
 40
0.00350185
 40
0.00350185
 40
0.00700376
 40
0.00700376
 40
0.00700376
 40
0.0105057
 40
0.0105057
 40
0.0105057
 40
0.0140076
 40
0.0140076
 40
0.0140076
 40
0.0210114
 40
0.0210114
 40
0.0210114
 40
0.0280152
 40
0.0280152
 40
0.0280152
 40
0.0350191
 40
0.0350191
 40
0.0350191
 40
0.0420229
 40
0.0420229
 40
0.0420229
 40
0.0490267
 40
0.0490267
 40
0.0490267
 40
0.0560305
 40
0.0560305
 40
0.0560305
 40
0.0630343
 40
0.0630343
 40
0.0630343
 40
0.0665363
 40
0.0665363
 40
0.0665363
 40
0.0700382
 40
0.0700382
 40
0.0700382
 40
0.0717891
 40
0.0717891
 40
0.0717891
 40
0.0735401
 40
0.0735401
 40
0.0735401
 40
0.075291
 40
0.075291
 40
0.075291
 40
0.077042
 40
0.077042
 40
0.077042
 40
0.0779175
 40
0.0779175
 40
0.0779175
 40
0.0787929
 40
0.0787929
 40
0.0787929
 40
0.0805439
 40
0.0805439
 40
0.0805439
 40
0.0822949
 40
0.0822949
 40
0.0822949
 40
0.0840458
 40
0.0840458
 40
0.0840458
 40
0.0875477
 40
0.0875477
 40
0.0875477
 40
0.0910496
 40
0.0910496
 40
0.0910496
 40
0.0980535
 40
0.0980535
 40
0.0980535
 40
0.101555
 40
0.101555
 40
0.101555
 40
0.103306
 40
0.103306
 40
0.103306
 40
0.105057
 40
0.105057
 40
0.105057
 40
0.106808
 40
0.106808
 40
0.106808
 40
0.108559
 40
0.108559
 40
0.108559
 40
0.11031
 40
0.11031
 40
0.11031
 40
0.112061
 40
0.112061
 40
0.112061
 40
0.112061
 10
0.95
 20
-1.3
 30
-32.5
 10
0.95
 20
-1.89411
 30
-32.467
 10
0.95
 20
-2.45999
 30
-32.323
 10
0.95
 20
-3.01143
 30
-32.1245
 10
0.95
 20
-3.56462
 30
-31.9241
 10
0.95
 20
-4.09783
 30
-31.667
 10
0.95
 20
-4.6056
 30
-31.3853
 10
0.95
 20
-5.62298
 30
-30.8187
 10
0.95
 20
-6.56881
 30
-30.1448
 10
0.95
 20
-7.4824
 30
-29.4225
 10
0.95
 20
-8.39608
 30
-28.6978
 10
0.95
 20
-9.27272
 30
-27.9208
 10
0.95
 20
-10.1139
 30
-27.1237
 10
0.95
 20
-10.9547
 30
-26.324
 10
0.95
 20
-11.7691
 30
-25.5023
 10
0.95
 20
-12.5573
 30
-24.6583
 10
0.95
 20
-14.1366
 30
-22.9729
 10
0.95
 20
-15.6291
 30
-21.2143
 10
0.95
 20
-17.0606
 30
-19.4043
 10
0.95
 20
-18.491
 30
-17.5933
 10
0.95
 20
-19.8627
 30
-15.7328
 10
0.95
 20
-21.1755
 30
-13.8228
 10
0.95
 20
-22.4907
 30
-11.912
 10
0.95
 20
-23.747
 30
-9.9587
 10
0.95
 20
-24.936
 30
-7.9786
 10
0.95
 20
-26.1265
 30
-5.99768
 10
0.95
 20
-27.2506
 30
-3.98349
 10
0.95
 20
-28.3085
 30
-1.93604
 10
0.95
 20
-29.3677
 30
0.11071
 10
0.95
 20
-30.3518
 30
2.19514
 10
0.95
 20
-31.2607
 30
4.31725
 10
0.95
 20
-32.1667
 30
6.43977
 10
0.95
 20
-32.9935
 30
8.60615
 10
0.95
 20
-33.7078
 30
10.8233
 10
0.95
 20
-34.4195
 30
13.0391
 10
0.95
 20
-35.0163
 30
15.2822
 10
0.95
 20
-35.4227
 30
17.5707
 10
0.95
 20
-35.6252
 30
18.7151
 10
0.95
 20
-35.7789
 30
19.8765
 10
0.95
 20
-35.8573
 30
21.0322
 10
0.95
 20
-35.9358
 30
22.1879
 10
0.95
 20
-35.9424
 30
23.3412
 10
0.95
 20
-35.824
 30
24.4902
 10
0.95
 20
-35.7676
 30
25.0648
 10
0.95
 20
-35.6711
 30
25.6381
 10
0.95
 20
-35.5344
 30
26.21
 10
0.95
 20
-35.3942
 30
26.784
 10
0.95
 20
-35.2068
 30
27.3474
 10
0.95
 20
-34.9542
 30
27.8763
 10
0.95
 20
-34.7011
 30
28.4063
 10
0.95
 20
-34.3746
 30
28.9129
 10
0.95
 20
-33.9688
 30
29.3405
 10
0.95
 20
-33.561
 30
29.7716
 10
0.95
 20
-33.0686
 30
30.121
 10
0.95
 20
-32.5313
 30
30.3523
 10
0.95
 20
-32.2589
 30
30.4697
 10
0.95
 20
-31.9774
 30
30.5603
 10
0.95
 20
-31.6869
 30
30.6241
 10
0.95
 20
-31.3988
 30
30.6869
 10
0.95
 20
-31.1074
 30
30.7259
 10
0.95
 20
-30.8125
 30
30.7411
 10
0.95
 20
-30.2198
 30
30.7727
 10
0.95
 20
-29.6273
 30
30.7175
 10
0.95
 20
-29.0521
 30
30.6101
 10
0.95
 20
-28.4749
 30
30.5023
 10
0.95
 20
-27.903
 30
30.3397
 10
0.95
 20
-27.348
 30
30.1452
 10
0.95
 20
-26.794
 30
29.9489
 10
0.95
 20
-26.2534
 30
29.7262
 10
0.95
 20
-25.7263
 30
29.4771
 10
0.95
 20
-24.6704
 30
28.9825
 10
0.95
 20
-23.6571
 30
28.4047
 10
0.95
 20
-22.6656
 30
27.7844
 10
0.95
 20
-21.674
 30
27.1641
 10
0.95
 20
-20.7055
 30
26.4998
 10
0.95
 20
-19.7529
 30
25.8175
 10
0.95
 20
-17.8471
 30
24.454
 10
0.95
 20
-16.0018
 30
23.0072
 10
0.95
 20
-14.1109
 30
21.6232
 10
0.95
 20
-13.165
 30
20.9318
 10
0.95
 20
-12.2057
 30
20.2551
 10
0.95
 20
-11.2127
 30
19.6368
 10
0.95
 20
-10.7171
 30
19.3261
 10
0.95
 20
-10.2102
 30
19.0352
 10
0.95
 20
-9.69198
 30
18.764
 10
0.95
 20
-9.17284
 30
18.4945
 10
0.95
 20
-8.63621
 30
18.2483
 10
0.95
 20
-8.08783
 30
18.0465
 10
0.95
 20
-7.54033
 30
17.8414
 10
0.95
 20
-6.97829
 30
17.69
 10
0.95
 20
-6.40171
 30
17.5924
 10
0.95
 20
-5.82165
 30
17.4971
 10
0.95
 20
-5.22757
 30
17.4706
 10
0.95
 20
-4.65206
 30
17.518
 10
0.95
 20
-4.07408
 30
17.5675
 10
0.95
 20
-3.50354
 30
17.6802
 10
0.95
 20
-2.94046
 30
17.8562
 10
0.95
 20
-2.37751
 30
18.0294
 10
0.95
 20
-1.83394
 30
18.2523
 10
0.95
 20
-1.3
 30
18.5
  0
LINE
  5
B5D
330
A02
100
AcDbEntity
  8
Solid001
100
AcDbLine
 10
0.95
 20
-1.3
 30
-32.5
 11
-0.95
 21
-1.3
 31
-32.5
  0
SPLINE
  5
B5E
330
A02
100
AcDbEntity
  8
Solid001
100
AcDbSpline
210
0
220
0
230
1
 70
8
 71
3
 72
104
 73
100
 74
0
 40
-6e-08
 40
-6e-08
 40
-6e-08
 40
-6e-08
 40
0.0017622
 40
0.0017622
 40
0.0017622
 40
0.00352447
 40
0.00352447
 40
0.00352447
 40
0.00528673
 40
0.00528673
 40
0.00528673
 40
0.007049
 40
0.007049
 40
0.007049
 40
0.00881126
 40
0.00881126
 40
0.00881126
 40
0.0105735
 40
0.0105735
 40
0.0105735
 40
0.0140981
 40
0.0140981
 40
0.0140981
 40
0.0211471
 40
0.0211471
 40
0.0211471
 40
0.0246716
 40
0.0246716
 40
0.0246716
 40
0.0281962
 40
0.0281962
 40
0.0281962
 40
0.0299584
 40
0.0299584
 40
0.0299584
 40
0.0317207
 40
0.0317207
 40
0.0317207
 40
0.033483
 40
0.033483
 40
0.033483
 40
0.0343641
 40
0.0343641
 40
0.0343641
 40
0.0352452
 40
0.0352452
 40
0.0352452
 40
0.0370075
 40
0.0370075
 40
0.0370075
 40
0.0387698
 40
0.0387698
 40
0.0387698
 40
0.040532
 40
0.040532
 40
0.040532
 40
0.0422943
 40
0.0422943
 40
0.0422943
 40
0.0458188
 40
0.0458188
 40
0.0458188
 40
0.0493434
 40
0.0493434
 40
0.0493434
 40
0.0563924
 40
0.0563924
 40
0.0563924
 40
0.0634415
 40
0.0634415
 40
0.0634415
 40
0.0704905
 40
0.0704905
 40
0.0704905
 40
0.0775396
 40
0.0775396
 40
0.0775396
 40
0.0845886
 40
0.0845886
 40
0.0845886
 40
0.0916377
 40
0.0916377
 40
0.0916377
 40
0.0986868
 40
0.0986868
 40
0.0986868
 40
0.102211
 40
0.102211
 40
0.102211
 40
0.105736
 40
0.105736
 40
0.105736
 40
0.10926
 40
0.10926
 40
0.10926
 40
0.111023
 40
0.111023
 40
0.111023
 40
0.112785
 40
0.112785
 40
0.112785
 40
0.112785
 10
-0.95
 20
-1.3
 30
18.5
 10
-0.95
 20
-1.83289
 30
18.2528
 10
-0.95
 20
-2.37751
 30
18.0294
 10
-0.95
 20
-2.94046
 30
17.8562
 10
-0.95
 20
-3.50354
 30
17.6802
 10
-0.95
 20
-4.07408
 30
17.5675
 10
-0.95
 20
-4.65206
 30
17.518
 10
-0.95
 20
-5.22757
 30
17.4706
 10
-0.95
 20
-5.82165
 30
17.4971
 10
-0.95
 20
-6.40171
 30
17.5924
 10
-0.95
 20
-6.97829
 30
17.69
 10
-0.95
 20
-7.54033
 30
17.8414
 10
-0.95
 20
-8.08783
 30
18.0465
 10
-0.95
 20
-8.63621
 30
18.2483
 10
-0.95
 20
-9.17284
 30
18.4945
 10
-0.95
 20
-9.69198
 30
18.764
 10
-0.95
 20
-10.2102
 30
19.0352
 10
-0.95
 20
-10.7171
 30
19.3261
 10
-0.95
 20
-11.2127
 30
19.6368
 10
-0.95
 20
-12.2057
 30
20.2551
 10
-0.95
 20
-13.165
 30
20.9318
 10
-0.95
 20
-14.1109
 30
21.6232
 10
-0.95
 20
-16.0018
 30
23.0072
 10
-0.95
 20
-17.8471
 30
24.454
 10
-0.95
 20
-19.7529
 30
25.8175
 10
-0.95
 20
-20.7055
 30
26.4998
 10
-0.95
 20
-21.674
 30
27.1641
 10
-0.95
 20
-22.6656
 30
27.7844
 10
-0.95
 20
-23.6571
 30
28.4047
 10
-0.95
 20
-24.6704
 30
28.9825
 10
-0.95
 20
-25.7263
 30
29.4771
 10
-0.95
 20
-26.2534
 30
29.7262
 10
-0.95
 20
-26.794
 30
29.9489
 10
-0.95
 20
-27.348
 30
30.1452
 10
-0.95
 20
-27.903
 30
30.3397
 10
-0.95
 20
-28.4749
 30
30.5023
 10
-0.95
 20
-29.0521
 30
30.6101
 10
-0.95
 20
-29.6273
 30
30.7175
 10
-0.95
 20
-30.2198
 30
30.7727
 10
-0.95
 20
-30.8125
 30
30.7411
 10
-0.95
 20
-31.1074
 30
30.7259
 10
-0.95
 20
-31.3988
 30
30.6869
 10
-0.95
 20
-31.6869
 30
30.6241
 10
-0.95
 20
-31.9774
 30
30.5603
 10
-0.95
 20
-32.2589
 30
30.4697
 10
-0.95
 20
-32.5313
 30
30.3523
 10
-0.95
 20
-33.0686
 30
30.121
 10
-0.95
 20
-33.561
 30
29.7716
 10
-0.95
 20
-33.9688
 30
29.3405
 10
-0.95
 20
-34.3746
 30
28.9129
 10
-0.95
 20
-34.7011
 30
28.4063
 10
-0.95
 20
-34.9542
 30
27.8763
 10
-0.95
 20
-35.2068
 30
27.3474
 10
-0.95
 20
-35.3942
 30
26.784
 10
-0.95
 20
-35.5344
 30
26.21
 10
-0.95
 20
-35.6711
 30
25.6381
 10
-0.95
 20
-35.7676
 30
25.0648
 10
-0.95
 20
-35.824
 30
24.4902
 10
-0.95
 20
-35.9424
 30
23.3412
 10
-0.95
 20
-35.9358
 30
22.1879
 10
-0.95
 20
-35.8573
 30
21.0322
 10
-0.95
 20
-35.7789
 30
19.8765
 10
-0.95
 20
-35.6252
 30
18.7151
 10
-0.95
 20
-35.4227
 30
17.5707
 10
-0.95
 20
-35.0163
 30
15.2822
 10
-0.95
 20
-34.4195
 30
13.0391
 10
-0.95
 20
-33.7078
 30
10.8233
 10
-0.95
 20
-32.9935
 30
8.60615
 10
-0.95
 20
-32.1667
 30
6.43977
 10
-0.95
 20
-31.2607
 30
4.31725
 10
-0.95
 20
-30.3518
 30
2.19514
 10
-0.95
 20
-29.3677
 30
0.11071
 10
-0.95
 20
-28.3085
 30
-1.93604
 10
-0.95
 20
-27.2506
 30
-3.98349
 10
-0.95
 20
-26.1265
 30
-5.99768
 10
-0.95
 20
-24.936
 30
-7.9786
 10
-0.95
 20
-23.747
 30
-9.9587
 10
-0.95
 20
-22.4907
 30
-11.912
 10
-0.95
 20
-21.1755
 30
-13.8228
 10
-0.95
 20
-19.8627
 30
-15.7328
 10
-0.95
 20
-18.491
 30
-17.5933
 10
-0.95
 20
-17.0606
 30
-19.4043
 10
-0.95
 20
-15.6291
 30
-21.2143
 10
-0.95
 20
-14.1366
 30
-22.9729
 10
-0.95
 20
-12.5573
 30
-24.6583
 10
-0.95
 20
-11.7691
 30
-25.5023
 10
-0.95
 20
-10.9547
 30
-26.324
 10
-0.95
 20
-10.1139
 30
-27.1237
 10
-0.95
 20
-9.27272
 30
-27.9208
 10
-0.95
 20
-8.39608
 30
-28.6978
 10
-0.95
 20
-7.4824
 30
-29.4225
 10
-0.95
 20
-6.56881
 30
-30.1448
 10
-0.95
 20
-5.62298
 30
-30.8187
 10
-0.95
 20
-4.6056
 30
-31.3853
 10
-0.95
 20
-4.09783
 30
-31.667
 10
-0.95
 20
-3.56462
 30
-31.9241
 10
-0.95
 20
-3.01143
 30
-32.1245
 10
-0.95
 20
-2.45985
 30
-32.3229
 10
-0.95
 20
-1.89431
 30
-32.4672
 10
-0.95
 20
-1.3
 30
-32.5
  0
LINE
  5
B5F
330
A02
100
AcDbEntity
  8
Solid001
100
AcDbLine
 10
0.95
 20
-1.3
 30
18.5
 11
-0.95
 21
-1.3
 31
18.5
  0
LINE
  5
B60
330
A02
100
AcDbEntity
  8
Solid001
100
AcDbLine
 10
0.95
 20
-29.6987
 30
25.3368
 11
-0.95
 21
-29.6987
 31
25.3368
  0
SPLINE
  5
B61
330
A02
100
AcDbEntity
  8
Solid001
100
AcDbSpline
210
0
220
0
230
1
 70
8
 71
3
 72
59
 73
55
 74
0
 40
0.0562207
 40
0.0562207
 40
0.0562207
 40
0.0562207
 40
0.0570993
 40
0.0570993
 40
0.0570993
 40
0.0579779
 40
0.0579779
 40
0.0579779
 40
0.0597351
 40
0.0597351
 40
0.0597351
 40
0.0614923
 40
0.0614923
 40
0.0614923
 40
0.0632495
 40
0.0632495
 40
0.0632495
 40
0.0667639
 40
0.0667639
 40
0.0667639
 40
0.0702784
 40
0.0702784
 40
0.0702784
 40
0.0773072
 40
0.0773072
 40
0.0773072
 40
0.0843361
 40
0.0843361
 40
0.0843361
 40
0.0913649
 40
0.0913649
 40
0.0913649
 40
0.0983938
 40
0.0983938
 40
0.0983938
 40
0.101908
 40
0.101908
 40
0.101908
 40
0.105423
 40
0.105423
 40
0.105423
 40
0.10718
 40
0.10718
 40
0.10718
 40
0.108937
 40
0.108937
 40
0.108937
 40
0.110694
 40
0.110694
 40
0.110694
 40
0.111573
 40
0.111573
 40
0.111573
 40
0.112451
 40
0.112451
 40
0.112451
 40
0.112451
 10
0.95
 20
-29.6987
 30
25.3368
 10
0.95
 20
-29.9568
 30
25.1947
 10
0.95
 20
-30.182
 30
25.0124
 10
0.95
 20
-30.3745
 30
24.7898
 10
0.95
 20
-30.5657
 30
24.5673
 10
0.95
 20
-30.7242
 30
24.3238
 10
0.95
 20
-30.8501
 30
24.0593
 10
0.95
 20
-31.105
 30
23.5313
 10
0.95
 20
-31.2458
 30
22.9692
 10
0.95
 20
-31.3344
 30
22.396
 10
0.95
 20
-31.4217
 30
21.82
 10
0.95
 20
-31.4511
 30
21.241
 10
0.95
 20
-31.4483
 30
20.6667
 10
0.95
 20
-31.4433
 30
20.0916
 10
0.95
 20
-31.4103
 30
19.5175
 10
0.95
 20
-31.3493
 30
18.9444
 10
0.95
 20
-31.2299
 30
17.7958
 10
0.95
 20
-31.022
 30
16.6548
 10
0.95
 20
-30.7679
 30
15.5404
 10
0.95
 20
-30.5105
 30
14.4247
 10
0.95
 20
-30.2108
 30
13.3235
 10
0.95
 20
-29.8689
 30
12.2367
 10
0.95
 20
-29.19
 30
10.0614
 10
0.95
 20
-28.3736
 30
7.93307
 10
0.95
 20
-27.4612
 30
5.8375
 10
0.95
 20
-26.5488
 30
3.74256
 10
0.95
 20
-25.5342
 30
1.67401
 10
0.95
 20
-24.4463
 30
-0.333094
 10
0.95
 20
-23.3586
 30
-2.3428
 10
0.95
 20
-22.189
 30
-4.29964
 10
0.95
 20
-20.9374
 30
-6.20359
 10
0.95
 20
-19.6846
 30
-8.10673
 10
0.95
 20
-18.348
 30
-9.95584
 10
0.95
 20
-16.8891
 30
-11.726
 10
0.95
 20
-16.1596
 30
-12.611
 10
0.95
 20
-15.3972
 30
-13.4776
 10
0.95
 20
-14.6019
 30
-14.3036
 10
0.95
 20
-13.8066
 30
-15.1297
 10
0.95
 20
-12.9776
 30
-15.919
 10
0.95
 20
-12.0914
 30
-16.6459
 10
0.95
 20
-11.6496
 30
-17.0107
 10
0.95
 20
-11.1895
 30
-17.3556
 10
0.95
 20
-10.7113
 30
-17.6806
 10
0.95
 20
-10.2318
 30
-18.0043
 10
0.95
 20
-9.73433
 30
-18.3017
 10
0.95
 20
-9.21558
 30
-18.5501
 10
0.95
 20
-8.69912
 30
-18.7969
 10
0.95
 20
-8.14919
 30
-19.0029
 10
0.95
 20
-7.57486
 30
-19.1027
 10
0.95
 20
-7.29033
 30
-19.1516
 10
0.95
 20
-6.99758
 30
-19.173
 10
0.95
 20
-6.70595
 30
-19.1518
 10
0.95
 20
-6.4156
 30
-19.1329
 10
0.95
 20
-6.13513
 30
-19.066
 10
0.95
 20
-5.86451
 30
-18.951
  0
SPLINE
  5
B62
330
A02
100
AcDbEntity
  8
Solid001
100
AcDbSpline
210
0
220
0
230
1
 70
8
 71
2
 72
6
 73
3
 74
0
 40
0.112451
 40
0.112451
 40
0.112451
 40
0.112657
 40
0.112657
 40
0.112657
 10
0.95
 20
-5.86451
 30
-18.951
 10
0.95
 20
-5.76988
 30
-18.91
 10
0.95
 20
-5.67918
 30
-18.8607
  0
LINE
  5
B63
330
A02
100
AcDbEntity
  8
Solid001
100
AcDbLine
 10
0.95
 20
-5.67918
 30
-18.8607
 11
-0.95
 21
-5.67918
 31
-18.8607
  0
SPLINE
  5
B64
330
A02
100
AcDbEntity
  8
Solid001
100
AcDbSpline
210
0
220
0
230
1
 70
8
 71
3
 72
59
 73
55
 74
0
 40
8.67362e-19
 40
8.67362e-19
 40
8.67362e-19
 40
8.67362e-19
 40
0.00087633
 40
0.00087633
 40
0.00087633
 40
0.00175266
 40
0.00175266
 40
0.00175266
 40
0.00350532
 40
0.00350532
 40
0.00350532
 40
0.00525798
 40
0.00525798
 40
0.00525798
 40
0.00701064
 40
0.00701064
 40
0.00701064
 40
0.010516
 40
0.010516
 40
0.010516
 40
0.0140213
 40
0.0140213
 40
0.0140213
 40
0.0210319
 40
0.0210319
 40
0.0210319
 40
0.0280426
 40
0.0280426
 40
0.0280426
 40
0.0350532
 40
0.0350532
 40
0.0350532
 40
0.0420639
 40
0.0420639
 40
0.0420639
 40
0.0455692
 40
0.0455692
 40
0.0455692
 40
0.0490745
 40
0.0490745
 40
0.0490745
 40
0.0508272
 40
0.0508272
 40
0.0508272
 40
0.0525798
 40
0.0525798
 40
0.0525798
 40
0.0543325
 40
0.0543325
 40
0.0543325
 40
0.0552088
 40
0.0552088
 40
0.0552088
 40
0.0560851
 40
0.0560851
 40
0.0560851
 40
0.0560851
 10
-0.95
 20
-5.67918
 30
-18.8607
 10
-0.95
 20
-5.93716
 30
-19.0014
 10
-0.95
 20
-6.2201
 30
-19.0898
 10
-0.95
 20
-6.51083
 30
-19.131
 10
-0.95
 20
-6.80201
 30
-19.1696
 10
-0.95
 20
-7.09328
 30
-19.1696
 10
-0.95
 20
-7.38466
 30
-19.1309
 10
-0.95
 20
-7.96151
 30
-19.0578
 10
-0.95
 20
-8.5154
 30
-18.8682
 10
-0.95
 20
-9.04695
 30
-18.6287
 10
-0.95
 20
-9.57606
 30
-18.3891
 10
-0.95
 20
-10.075
 30
-18.1001
 10
-0.95
 20
-10.5571
 30
-17.7833
 10
-0.95
 20
-11.0389
 30
-17.4645
 10
-0.95
 20
-11.5051
 30
-17.1222
 10
-0.95
 20
-11.9557
 30
-16.7563
 10
-0.95
 20
-12.8572
 30
-16.0288
 10
-0.95
 20
-13.6913
 30
-15.2416
 10
-0.95
 20
-14.4881
 30
-14.4214
 10
-0.95
 20
-15.2829
 30
-13.5994
 10
-0.95
 20
-16.0444
 30
-12.748
 10
-0.95
 20
-16.7724
 30
-11.867
 10
-0.95
 20
-18.2304
 30
-10.1095
 10
-0.95
 20
-19.5848
 30
-8.24784
 10
-0.95
 20
-20.8529
 30
-6.33173
 10
-0.95
 20
-22.1165
 30
-4.41706
 10
-0.95
 20
-23.2921
 30
-2.45836
 10
-0.95
 20
-24.3798
 30
-0.455639
 10
-0.95
 20
-25.4708
 30
1.5454
 10
-0.95
 20
-26.4747
 30
3.59
 10
-0.95
 20
-27.3916
 30
5.67815
 10
-0.95
 20
-28.3059
 30
7.76726
 10
-0.95
 20
-29.1321
 30
9.90162
 10
-0.95
 20
-29.8262
 30
12.1006
 10
-0.95
 20
-30.1751
 30
13.1995
 10
-0.95
 20
-30.4806
 30
14.3097
 10
-0.95
 20
-30.7428
 30
15.4312
 10
-0.95
 20
-31.0026
 30
16.5534
 10
-0.95
 20
-31.2132
 30
17.6892
 10
-0.95
 20
-31.3371
 30
18.83
 10
-0.95
 20
-31.4009
 30
19.4002
 10
-0.95
 20
-31.4376
 30
19.9729
 10
-0.95
 20
-31.4472
 30
20.5482
 10
-0.95
 20
-31.455
 30
21.1237
 10
-0.95
 20
-31.4306
 30
21.7055
 10
-0.95
 20
-31.3516
 30
22.2771
 10
-0.95
 20
-31.2727
 30
22.8462
 10
-0.95
 20
-31.1381
 30
23.4209
 10
-0.95
 20
-30.9037
 30
23.9444
 10
-0.95
 20
-30.7881
 30
24.2081
 10
-0.95
 20
-30.6404
 30
24.4554
 10
-0.95
 20
-30.4607
 30
24.6863
 10
-0.95
 20
-30.2798
 30
24.9172
 10
-0.95
 20
-30.065
 30
25.1112
 10
-0.95
 20
-29.8164
 30
25.2683
  0
SPLINE
  5
B65
330
A02
100
AcDbEntity
  8
Solid001
100
AcDbSpline
210
0
220
0
230
1
 70
8
 71
1
 72
4
 73
2
 74
0
 40
0.0560851
 40
0.0560851
 40
0.0562207
 40
0.0562207
 10
-0.95
 20
-29.8164
 30
25.2683
 10
-0.95
 20
-29.6987
 30
25.3368
  0
ARC
  5
B66
330
A02
100
AcDbEntity
  8
Solid001
100
AcDbCircle
 10
0.95
 20
-30.3427
 30
27.0274
 40
1.8
100
AcDbArc
 50
-1.13086e-13
 51
90
  0
SPLINE
  5
B67
330
A02
100
AcDbEntity
  8
Solid001
100
AcDbSpline
210
0
220
0
230
1
 70
8
 71
3
 72
56
 73
52
 74
0
 40
0.00036541
 40
0.00036541
 40
0.00036541
 40
0.00036541
 40
0.0013347
 40
0.0013347
 40
0.0013347
 40
0.00230399
 40
0.00230399
 40
0.00230399
 40
0.00424257
 40
0.00424257
 40
0.00424257
 40
0.00618115
 40
0.00618115
 40
0.00618115
 40
0.00811973
 40
0.00811973
 40
0.00811973
 40
0.0119969
 40
0.0119969
 40
0.0119969
 40
0.0158741
 40
0.0158741
 40
0.0158741
 40
0.0236284
 40
0.0236284
 40
0.0236284
 40
0.0313827
 40
0.0313827
 40
0.0313827
 40
0.039137
 40
0.039137
 40
0.039137
 40
0.0468914
 40
0.0468914
 40
0.0468914
 40
0.0507685
 40
0.0507685
 40
0.0507685
 40
0.0546457
 40
0.0546457
 40
0.0546457
 40
0.0565843
 40
0.0565843
 40
0.0565843
 40
0.0585228
 40
0.0585228
 40
0.0585228
 40
0.0604614
 40
0.0604614
 40
0.0604614
 40
0.0624
 40
0.0624
 40
0.0624
 40
0.0624
 10
2.75
 20
-5.14815
 30
-20.6023
 10
2.75
 20
-5.44501
 30
-20.7303
 10
2.75
 20
-5.74969
 30
-20.8232
 10
2.75
 20
-6.06219
 30
-20.8809
 10
2.75
 20
-6.3766
 30
-20.9389
 10
2.75
 20
-6.69547
 30
-20.9651
 10
2.75
 20
-7.01879
 30
-20.9593
 10
2.75
 20
-7.65959
 30
-20.9487
 10
2.75
 20
-8.29111
 30
-20.8195
 10
2.75
 20
-8.90086
 30
-20.6179
 10
2.75
 20
-9.50772
 30
-20.4169
 10
2.75
 20
-10.0825
 30
-20.1486
 10
2.75
 20
-10.6377
 30
-19.8394
 10
2.75
 20
-11.1929
 30
-19.5303
 10
2.75
 20
-11.7302
 30
-19.1777
 10
2.75
 20
-12.2439
 30
-18.8038
 10
2.75
 20
-13.2714
 30
-18.056
 10
2.75
 20
-14.2182
 30
-17.2198
 10
2.75
 20
-15.1215
 30
-16.336
 10
2.75
 20
-16.0241
 30
-15.4525
 10
2.75
 20
-16.8835
 30
-14.517
 10
2.75
 20
-17.708
 30
-13.5508
 10
2.75
 20
-19.3534
 30
-11.6195
 10
2.75
 20
-20.8462
 30
-9.58971
 10
2.75
 20
-22.2405
 30
-7.49621
 10
2.75
 20
-23.6319
 30
-5.40086
 10
2.75
 20
-24.9253
 30
-3.24229
 10
2.75
 20
-26.1209
 30
-1.0205
 10
2.75
 20
-27.3173
 30
1.19925
 10
2.75
 20
-28.4253
 30
3.48988
 10
2.75
 20
-29.4079
 30
5.80905
 10
2.75
 20
-30.3898
 30
8.13088
 10
2.75
 20
-31.2575
 30
10.4916
 10
2.75
 20
-31.9491
 30
12.9122
 10
2.75
 20
-32.2941
 30
14.1227
 10
2.75
 20
-32.5941
 30
15.3486
 10
2.75
 20
-32.8246
 30
16.5982
 10
2.75
 20
-33.0545
 30
17.8505
 10
2.75
 20
-33.2163
 30
19.1208
 10
2.75
 20
-33.2446
 30
20.3872
 10
2.75
 20
-33.2617
 30
21.0213
 10
2.75
 20
-33.2348
 30
21.6569
 10
2.75
 20
-33.1639
 30
22.2939
 10
2.75
 20
-33.0896
 30
22.9311
 10
2.75
 20
-32.9626
 30
23.5579
 10
2.75
 20
-32.7527
 30
24.1603
 10
2.75
 20
-32.5421
 30
24.765
 10
2.75
 20
-32.2443
 30
25.3456
 10
2.75
 20
-31.8404
 30
25.843
 10
2.75
 20
-31.4341
 30
26.3447
 10
2.75
 20
-30.9298
 30
26.7518
 10
2.75
 20
-30.3427
 30
27.0274
  0
ARC
  5
B68
330
A02
100
AcDbEntity
  8
Solid001
100
AcDbCircle
 10
0.95
 20
-5.14815
 30
-20.6023
 40
1.8
100
AcDbArc
 50
-90
 51
0
  0
SPLINE
  5
B69
330
A02
100
AcDbEntity
  8
Solid001
100
AcDbSpline
210
0
220
0
230
1
 70
8
 71
3
 72
59
 73
55
 74
0
 40
0.0562207
 40
0.0562207
 40
0.0562207
 40
0.0562207
 40
0.0570993
 40
0.0570993
 40
0.0570993
 40
0.0579779
 40
0.0579779
 40
0.0579779
 40
0.0597351
 40
0.0597351
 40
0.0597351
 40
0.0614923
 40
0.0614923
 40
0.0614923
 40
0.0632495
 40
0.0632495
 40
0.0632495
 40
0.0667639
 40
0.0667639
 40
0.0667639
 40
0.0702784
 40
0.0702784
 40
0.0702784
 40
0.0773072
 40
0.0773072
 40
0.0773072
 40
0.0843361
 40
0.0843361
 40
0.0843361
 40
0.0913649
 40
0.0913649
 40
0.0913649
 40
0.0983938
 40
0.0983938
 40
0.0983938
 40
0.101908
 40
0.101908
 40
0.101908
 40
0.105423
 40
0.105423
 40
0.105423
 40
0.10718
 40
0.10718
 40
0.10718
 40
0.108937
 40
0.108937
 40
0.108937
 40
0.110694
 40
0.110694
 40
0.110694
 40
0.111573
 40
0.111573
 40
0.111573
 40
0.112451
 40
0.112451
 40
0.112451
 40
0.112451
 10
0.95
 20
-29.6987
 30
25.3368
 10
0.95
 20
-29.9568
 30
25.1947
 10
0.95
 20
-30.182
 30
25.0124
 10
0.95
 20
-30.3745
 30
24.7898
 10
0.95
 20
-30.5657
 30
24.5673
 10
0.95
 20
-30.7242
 30
24.3238
 10
0.95
 20
-30.8501
 30
24.0593
 10
0.95
 20
-31.105
 30
23.5313
 10
0.95
 20
-31.2458
 30
22.9692
 10
0.95
 20
-31.3344
 30
22.396
 10
0.95
 20
-31.4217
 30
21.82
 10
0.95
 20
-31.4511
 30
21.241
 10
0.95
 20
-31.4483
 30
20.6667
 10
0.95
 20
-31.4433
 30
20.0916
 10
0.95
 20
-31.4103
 30
19.5175
 10
0.95
 20
-31.3493
 30
18.9444
 10
0.95
 20
-31.2299
 30
17.7958
 10
0.95
 20
-31.022
 30
16.6548
 10
0.95
 20
-30.7679
 30
15.5404
 10
0.95
 20
-30.5105
 30
14.4247
 10
0.95
 20
-30.2108
 30
13.3235
 10
0.95
 20
-29.8689
 30
12.2367
 10
0.95
 20
-29.19
 30
10.0614
 10
0.95
 20
-28.3736
 30
7.93307
 10
0.95
 20
-27.4612
 30
5.8375
 10
0.95
 20
-26.5488
 30
3.74256
 10
0.95
 20
-25.5342
 30
1.67401
 10
0.95
 20
-24.4463
 30
-0.333094
 10
0.95
 20
-23.3586
 30
-2.3428
 10
0.95
 20
-22.189
 30
-4.29964
 10
0.95
 20
-20.9374
 30
-6.20359
 10
0.95
 20
-19.6846
 30
-8.10673
 10
0.95
 20
-18.348
 30
-9.95584
 10
0.95
 20
-16.8891
 30
-11.726
 10
0.95
 20
-16.1596
 30
-12.611
 10
0.95
 20
-15.3972
 30
-13.4776
 10
0.95
 20
-14.6019
 30
-14.3036
 10
0.95
 20
-13.8066
 30
-15.1297
 10
0.95
 20
-12.9776
 30
-15.919
 10
0.95
 20
-12.0914
 30
-16.6459
 10
0.95
 20
-11.6496
 30
-17.0107
 10
0.95
 20
-11.1895
 30
-17.3556
 10
0.95
 20
-10.7113
 30
-17.6806
 10
0.95
 20
-10.2318
 30
-18.0043
 10
0.95
 20
-9.73433
 30
-18.3017
 10
0.95
 20
-9.21558
 30
-18.5501
 10
0.95
 20
-8.69912
 30
-18.7969
 10
0.95
 20
-8.14919
 30
-19.0029
 10
0.95
 20
-7.57486
 30
-19.1027
 10
0.95
 20
-7.29033
 30
-19.1516
 10
0.95
 20
-6.99758
 30
-19.173
 10
0.95
 20
-6.70595
 30
-19.1518
 10
0.95
 20
-6.4156
 30
-19.1329
 10
0.95
 20
-6.13513
 30
-19.066
 10
0.95
 20
-5.86451
 30
-18.951
  0
SPLINE
  5
B6A
330
A02
100
AcDbEntity
  8
Solid001
100
AcDbSpline
210
0
220
0
230
1
 70
8
 71
1
 72
4
 73
2
 74
0
 40
0.0560851
 40
0.0560851
 40
0.0562207
 40
0.0562207
 10
0.95
 20
-29.5773
 30
25.3983
 10
0.95
 20
-29.6987
 30
25.3368
  0
ARC
  5
B6B
330
A02
100
AcDbEntity
  8
Solid001
100
AcDbCircle
 10
-0.95
 20
-30.767
 30
26.7968
 40
1.8
100
AcDbArc
 50
90
 51
-180
  0
SPLINE
  5
B6C
330
A02
100
AcDbEntity
  8
Solid001
100
AcDbSpline
210
0
220
0
230
1
 70
8
 71
3
 72
56
 73
52
 74
0
 40
0.00036541
 40
0.00036541
 40
0.00036541
 40
0.00036541
 40
0.0013347
 40
0.0013347
 40
0.0013347
 40
0.00230399
 40
0.00230399
 40
0.00230399
 40
0.00424257
 40
0.00424257
 40
0.00424257
 40
0.00618115
 40
0.00618115
 40
0.00618115
 40
0.00811973
 40
0.00811973
 40
0.00811973
 40
0.0119969
 40
0.0119969
 40
0.0119969
 40
0.0158741
 40
0.0158741
 40
0.0158741
 40
0.0236284
 40
0.0236284
 40
0.0236284
 40
0.0313827
 40
0.0313827
 40
0.0313827
 40
0.039137
 40
0.039137
 40
0.039137
 40
0.0468914
 40
0.0468914
 40
0.0468914
 40
0.0507685
 40
0.0507685
 40
0.0507685
 40
0.0546457
 40
0.0546457
 40
0.0546457
 40
0.0565843
 40
0.0565843
 40
0.0565843
 40
0.0585228
 40
0.0585228
 40
0.0585228
 40
0.0604614
 40
0.0604614
 40
0.0604614
 40
0.0624
 40
0.0624
 40
0.0624
 40
0.0624
 10
-2.75
 20
-4.50666
 30
-20.2537
 10
-2.75
 20
-4.23778
 30
-20.0742
 10
-2.75
 20
-3.99412
 30
-19.8691
 10
-2.75
 20
-3.77568
 30
-19.6383
 10
-2.75
 20
-3.55596
 30
-19.406
 10
-2.75
 20
-3.36058
 30
-19.1527
 10
-2.75
 20
-3.18954
 30
-18.8782
 10
-2.75
 20
-2.84984
 30
-18.3348
 10
-2.75
 20
-2.61472
 30
-17.7346
 10
-2.75
 20
-2.4522
 30
-17.1133
 10
-2.75
 20
-2.29074
 30
-16.4947
 10
-2.75
 20
-2.20322
 30
-15.8665
 10
-2.75
 20
-2.16059
 30
-15.2325
 10
-2.75
 20
-2.11796
 30
-14.5984
 10
-2.75
 20
-2.12155
 30
-13.9558
 10
-2.75
 20
-2.15581
 30
-13.3213
 10
-2.75
 20
-2.22432
 30
-12.0524
 10
-2.75
 20
-2.41094
 30
-10.803
 10
-2.75
 20
-2.66119
 30
-9.5643
 10
-2.75
 20
-2.9115
 30
-8.32638
 10
-2.75
 20
-3.22902
 30
-7.09631
 10
-2.75
 20
-3.59118
 30
-5.87891
 10
-2.75
 20
-4.31666
 30
-3.44767
 10
-2.75
 20
-5.20776
 30
-1.09082
 10
-2.75
 20
-6.20596
 30
1.21791
 10
-2.75
 20
-7.20726
 30
3.52525
 10
-2.75
 20
-8.31487
 30
5.78483
 10
-2.75
 20
-9.52879
 30
7.99665
 10
-2.75
 20
-10.7405
 30
10.2081
 10
-2.75
 20
-12.0599
 30
12.3839
 10
-2.75
 20
-13.4713
 30
14.4699
 10
-2.75
 20
-14.8854
 30
16.5569
 10
-2.75
 20
-16.3942
 30
18.5692
 10
-2.75
 20
-18.0492
 30
20.4662
 10
-2.75
 20
-18.8773
 30
21.4142
 10
-2.75
 20
-19.7427
 30
22.3329
 10
-2.75
 20
-20.6658
 30
23.206
 10
-2.75
 20
-21.5916
 30
24.0801
 10
-2.75
 20
-22.5694
 30
24.9069
 10
-2.75
 20
-23.6167
 30
25.6196
 10
-2.75
 20
-24.1394
 30
25.9789
 10
-2.75
 20
-24.6874
 30
26.302
 10
-2.75
 20
-25.2605
 30
26.5891
 10
-2.75
 20
-25.8356
 30
26.8734
 10
-2.75
 20
-26.4306
 30
27.1078
 10
-2.75
 20
-27.0502
 30
27.2593
 10
-2.75
 20
-27.6722
 30
27.4116
 10
-2.75
 20
-28.3214
 30
27.4776
 10
-2.75
 20
-28.9585
 30
27.4092
 10
-2.75
 20
-29.6004
 30
27.3412
 10
-2.75
 20
-30.2164
 30
27.1395
 10
-2.75
 20
-30.767
 30
26.7968
  0
ARC
  5
B6D
330
A02
100
AcDbEntity
  8
Solid001
100
AcDbCircle
 10
-0.95
 20
-4.50666
 30
-20.2537
 40
1.8
100
AcDbArc
 50
180
 51
-90
  0
SPLINE
  5
B6E
330
A02
100
AcDbEntity
  8
Solid001
100
AcDbSpline
210
0
220
0
230
1
 70
8
 71
3
 72
59
 73
55
 74
0
 40
0.0562207
 40
0.0562207
 40
0.0562207
 40
0.0562207
 40
0.0570993
 40
0.0570993
 40
0.0570993
 40
0.0579779
 40
0.0579779
 40
0.0579779
 40
0.0597351
 40
0.0597351
 40
0.0597351
 40
0.0614923
 40
0.0614923
 40
0.0614923
 40
0.0632495
 40
0.0632495
 40
0.0632495
 40
0.0667639
 40
0.0667639
 40
0.0667639
 40
0.0702784
 40
0.0702784
 40
0.0702784
 40
0.0773072
 40
0.0773072
 40
0.0773072
 40
0.0843361
 40
0.0843361
 40
0.0843361
 40
0.0913649
 40
0.0913649
 40
0.0913649
 40
0.0983938
 40
0.0983938
 40
0.0983938
 40
0.101908
 40
0.101908
 40
0.101908
 40
0.105423
 40
0.105423
 40
0.105423
 40
0.10718
 40
0.10718
 40
0.10718
 40
0.108937
 40
0.108937
 40
0.108937
 40
0.110694
 40
0.110694
 40
0.110694
 40
0.111573
 40
0.111573
 40
0.111573
 40
0.112451
 40
0.112451
 40
0.112451
 40
0.112451
 10
-0.95
 20
-29.6987
 30
25.3368
 10
-0.95
 20
-29.4392
 30
25.476
 10
-0.95
 20
-29.1637
 30
25.5658
 10
-0.95
 20
-28.8722
 30
25.6063
 10
-0.95
 20
-28.5814
 30
25.6457
 10
-0.95
 20
-28.2909
 30
25.6462
 10
-0.95
 20
-28.0005
 30
25.6079
 10
-0.95
 20
-27.4188
 30
25.5345
 10
-0.95
 20
-26.8706
 30
25.3469
 10
-0.95
 20
-26.3414
 30
25.1095
 10
-0.95
 20
-25.8106
 30
24.8694
 10
-0.95
 20
-25.3087
 30
24.5792
 10
-0.95
 20
-24.8284
 30
24.2644
 10
-0.95
 20
-24.3485
 30
23.9473
 10
-0.95
 20
-23.8847
 30
23.6073
 10
-0.95
 20
-23.4371
 30
23.2444
 10
-0.95
 20
-22.5382
 30
22.5194
 10
-0.95
 20
-21.6939
 30
21.7242
 10
-0.95
 20
-20.897
 30
20.9048
 10
-0.95
 20
-20.1009
 30
20.0819
 10
-0.95
 20
-19.3399
 30
19.2314
 10
-0.95
 20
-18.614
 30
18.3533
 10
-0.95
 20
-17.158
 30
16.6003
 10
-0.95
 20
-15.8163
 30
14.7575
 10
-0.95
 20
-14.5542
 30
12.8519
 10
-0.95
 20
-13.2927
 30
10.9467
 10
-0.95
 20
-12.1089
 30
8.9701
 10
-0.95
 20
-11.0165
 30
6.96546
 10
-0.95
 20
-9.92189
 30
4.95953
 10
-0.95
 20
-8.91619
 30
2.91361
 10
-0.95
 20
-7.99943
 30
0.827697
 10
-0.95
 20
-7.08404
 30
-1.25883
 10
-0.95
 20
-6.25952
 30
-3.38621
 10
-0.95
 20
-5.56788
 30
-5.57334
 10
-0.95
 20
-5.22206
 30
-6.6669
 10
-0.95
 20
-4.90966
 30
-7.77799
 10
-0.95
 20
-4.64916
 30
-8.89471
 10
-0.95
 20
-4.38866
 30
-10.0114
 10
-0.95
 20
-4.17733
 30
-11.1364
 10
-0.95
 20
-4.04946
 30
-12.2754
 10
-0.95
 20
-3.98371
 30
-12.8446
 10
-0.95
 20
-3.94455
 30
-13.4183
 10
-0.95
 20
-3.93198
 30
-13.9964
 10
-0.95
 20
-3.92123
 30
-14.5748
 10
-0.95
 20
-3.94227
 30
-15.154
 10
-0.95
 20
-4.01603
 30
-15.7244
 10
-0.95
 20
-4.08994
 30
-16.292
 10
-0.95
 20
-4.21623
 30
-16.8655
 10
-0.95
 20
-4.44493
 30
-17.4017
 10
-0.95
 20
-4.55866
 30
-17.667
 10
-0.95
 20
-4.69997
 30
-17.9243
 10
-0.95
 20
-4.87635
 30
-18.1575
 10
-0.95
 20
-5.05016
 30
-18.3909
 10
-0.95
 20
-5.2589
 30
-18.5898
 10
-0.95
 20
-5.50257
 30
-18.7543
  0
SPLINE
  5
B6F
330
A02
100
AcDbEntity
  8
Solid001
100
AcDbSpline
210
0
220
0
230
1
 70
8
 71
1
 72
4
 73
2
 74
0
 40
0.0560851
 40
0.0560851
 40
0.0562207
 40
0.0562207
 10
-0.95
 20
-29.8164
 30
25.2683
 10
-0.95
 20
-29.6987
 30
25.3368
  0
SPLINE
  5
B70
330
A02
100
AcDbEntity
  8
Solid001
100
AcDbSpline
210
0
220
0
230
1
 70
8
 71
3
 72
17
 73
13
 74
0
 40
0
 40
0
 40
0
 40
0
 40
0.000734963
 40
0.000734963
 40
0.000734963
 40
0.00146993
 40
0.00146993
 40
0.00146993
 40
0.00220489
 40
0.00220489
 40
0.00220489
 40
0.00293985
 40
0.00293985
 40
0.00293985
 40
0.00293985
 10
-2.75
 20
-1.3
 30
16.5358
 10
-2.74991
 20
-1.3
 30
16.7849
 10
-2.70715
 20
-1.3
 30
17.0261
 10
-2.62172
 20
-1.3
 30
17.2594
 10
-2.53652
 20
-1.3
 30
17.4926
 10
-2.41215
 20
-1.3
 30
17.7033
 10
-2.24861
 20
-1.3
 30
17.8917
 10
-2.08651
 20
-1.3
 30
18.0769
 10
-1.89012
 20
-1.3
 30
18.2291
 10
-1.66584
 20
-1.3
 30
18.3365
 10
-1.44467
 20
-1.3
 30
18.4423
 10
-1.20066
 20
-1.3
 30
18.4999
 10
-0.95
 20
-1.3
 30
18.5
  0
SPLINE
  5
B71
330
A02
100
AcDbEntity
  8
Solid001
100
AcDbSpline
210
0
220
0
230
1
 70
8
 71
3
 72
92
 73
88
 74
0
 40
0
 40
0
 40
0
 40
0
 40
0.00166832
 40
0.00166832
 40
0.00166832
 40
0.00333664
 40
0.00333664
 40
0.00333664
 40
0.00667327
 40
0.00667327
 40
0.00667327
 40
0.0133465
 40
0.0133465
 40
0.0133465
 40
0.0200198
 40
0.0200198
 40
0.0200198
 40
0.0266931
 40
0.0266931
 40
0.0266931
 40
0.0333664
 40
0.0333664
 40
0.0333664
 40
0.0400396
 40
0.0400396
 40
0.0400396
 40
0.0467129
 40
0.0467129
 40
0.0467129
 40
0.0533862
 40
0.0533862
 40
0.0533862
 40
0.0600594
 40
0.0600594
 40
0.0600594
 40
0.0633961
 40
0.0633961
 40
0.0633961
 40
0.0667327
 40
0.0667327
 40
0.0667327
 40
0.068401
 40
0.068401
 40
0.068401
 40
0.0700694
 40
0.0700694
 40
0.0700694
 40
0.0717377
 40
0.0717377
 40
0.0717377
 40
0.0725718
 40
0.0725718
 40
0.0725718
 40
0.073406
 40
0.073406
 40
0.073406
 40
0.0742401
 40
0.0742401
 40
0.0742401
 40
0.0750743
 40
0.0750743
 40
0.0750743
 40
0.0767426
 40
0.0767426
 40
0.0767426
 40
0.0800793
 40
0.0800793
 40
0.0800793
 40
0.0867525
 40
0.0867525
 40
0.0867525
 40
0.0934258
 40
0.0934258
 40
0.0934258
 40
0.0967624
 40
0.0967624
 40
0.0967624
 40
0.100099
 40
0.100099
 40
0.100099
 40
0.101767
 40
0.101767
 40
0.101767
 40
0.103436
 40
0.103436
 40
0.103436
 40
0.106772
 40
0.106772
 40
0.106772
 40
0.106772
 10
-2.75
 20
-1.3
 30
-30.6957
 10
-2.75
 20
-1.86195
 30
-30.6422
 10
-2.75
 20
-2.38831
 30
-30.4534
 10
-2.75
 20
-2.90139
 30
-30.2287
 10
-2.75
 20
-3.41247
 30
-30.0013
 10
-2.75
 20
-3.89478
 30
-29.7312
 10
-2.75
 20
-4.36257
 30
-29.4394
 10
-2.75
 20
-5.2974
 30
-28.8547
 10
-2.75
 20
-6.17455
 30
-28.1841
 10
-2.75
 20
-7.0247
 30
-27.4733
 10
-2.75
 20
-8.72317
 30
-26.0457
 10
-2.75
 20
-10.2752
 30
-24.4866
 10
-2.75
 20
-11.7565
 30
-22.8743
 10
-2.75
 20
-13.2366
 30
-21.2593
 10
-2.75
 20
-14.6406
 30
-19.5802
 10
-2.75
 20
-15.9894
 30
-17.8546
 10
-2.75
 20
-17.3372
 30
-16.1282
 10
-2.75
 20
-18.6315
 30
-14.3567
 10
-2.75
 20
-19.8725
 30
-12.5403
 10
-2.75
 20
-21.1155
 30
-10.7231
 10
-2.75
 20
-22.3037
 30
-8.86858
 10
-2.75
 20
-23.4306
 30
-6.98895
 10
-2.75
 20
-24.5589
 30
-5.10864
 10
-2.75
 20
-25.6265
 30
-3.19788
 10
-2.75
 20
-26.6333
 30
-1.25669
 10
-2.75
 20
-27.6414
 30
0.683911
 10
-2.75
 20
-28.5811
 30
2.65884
 10
-2.75
 20
-29.4523
 30
4.66811
 10
-2.75
 20
-30.3216
 30
6.67834
 10
-2.75
 20
-31.1175
 30
8.72537
 10
-2.75
 20
-31.8137
 30
10.8224
 10
-2.75
 20
-32.5089
 30
12.9201
 10
-2.75
 20
-33.1003
 30
15.0431
 10
-2.75
 20
-33.5239
 30
17.2056
 10
-2.75
 20
-33.7347
 30
18.2857
 10
-2.75
 20
-33.9035
 30
19.3823
 10
-2.75
 20
-34.007
 30
20.482
 10
-2.75
 20
-34.11
 30
21.5799
 10
-2.75
 20
-34.15
 30
22.6759
 10
-2.75
 20
-34.0785
 30
23.7687
 10
-2.75
 20
-34.0456
 30
24.3151
 10
-2.75
 20
-33.976
 30
24.8605
 10
-2.75
 20
-33.8697
 30
25.4048
 10
-2.75
 20
-33.7601
 30
25.9493
 10
-2.75
 20
-33.604
 30
26.498
 10
-2.75
 20
-33.3743
 30
27.0053
 10
-2.75
 20
-33.1438
 30
27.513
 10
-2.75
 20
-32.8294
 30
28.0016
 10
-2.75
 20
-32.3875
 30
28.3556
 10
-2.75
 20
-32.1657
 30
28.5328
 10
-2.75
 20
-31.9217
 30
28.6689
 10
-2.75
 20
-31.6557
 30
28.764
 10
-2.75
 20
-31.3884
 30
28.8599
 10
-2.75
 20
-31.1109
 30
28.9126
 10
-2.75
 20
-30.8322
 30
28.9357
 10
-2.75
 20
-30.551
 30
28.9572
 10
-2.75
 20
-30.2701
 30
28.9542
 10
-2.75
 20
-29.9895
 30
28.9266
 10
-2.75
 20
-29.7109
 30
28.8997
 10
-2.75
 20
-29.4352
 30
28.8563
 10
-2.75
 20
-29.1623
 30
28.7963
 10
-2.75
 20
-28.6163
 30
28.6782
 10
-2.75
 20
-28.0778
 30
28.5049
 10
-2.75
 20
-27.5584
 30
28.3048
 10
-2.75
 20
-26.5202
 30
27.9032
 10
-2.75
 20
-25.5376
 30
27.3938
 10
-2.75
 20
-24.579
 30
26.8377
 10
-2.75
 20
-22.6621
 30
25.7194
 10
-2.75
 20
-20.8502
 30
24.4107
 10
-2.75
 20
-19.0672
 30
23.0841
 10
-2.75
 20
-17.282
 30
21.7558
 10
-2.75
 20
-15.5277
 30
20.3849
 10
-2.75
 20
-13.6974
 30
19.1187
 10
-2.75
 20
-12.7815
 30
18.4866
 10
-2.75
 20
-11.847
 30
17.8833
 10
-2.75
 20
-10.8719
 30
17.3529
 10
-2.75
 20
-9.89912
 30
16.8234
 10
-2.75
 20
-8.8687
 30
16.3613
 10
-2.75
 20
-7.80666
 30
16.064
 10
-2.75
 20
-7.27523
 30
15.9132
 10
-2.75
 20
-6.73179
 30
15.8073
 10
-2.75
 20
-6.17636
 30
15.7462
 10
-2.75
 20
-5.61762
 30
15.6867
 10
-2.75
 20
-5.06389
 30
15.6791
 10
-2.75
 20
-4.51518
 30
15.7232
 10
-2.75
 20
-3.42116
 30
15.8079
 10
-2.75
 20
-2.33626
 30
16.1098
 10
-2.75
 20
-1.3
 30
16.5358
  0
SPLINE
  5
B72
330
A02
100
AcDbEntity
  8
Solid001
100
AcDbSpline
210
0
220
0
230
1
 70
8
 71
3
 72
14
 73
10
 74
0
 40
0
 40
0
 40
0
 40
0
 40
0.000703863
 40
0.000703863
 40
0.000703863
 40
0.00140773
 40
0.00140773
 40
0.00140773
 40
0.00281545
 40
0.00281545
 40
0.00281545
 40
0.00281545
 10
-0.95
 20
-1.3
 30
-32.5
 10
-1.18856
 20
-1.3
 30
-32.4996
 10
-1.41843
 20
-1.3
 30
-32.4538
 10
-1.6396
 20
-1.3
 30
-32.3625
 10
-1.85655
 20
-1.3
 30
-32.2727
 10
-2.05604
 20
-1.3
 30
-32.139
 10
-2.2233
 20
-1.3
 30
-31.9714
 10
-2.55775
 20
-1.3
 30
-31.6372
 10
-2.75119
 20
-1.3
 30
-31.1727
 10
-2.75
 20
-1.3
 30
-30.6957
  0
SPLINE
  5
B73
330
A02
100
AcDbEntity
  8
Solid001
100
AcDbSpline
210
0
220
0
230
1
 70
8
 71
3
 72
104
 73
100
 74
0
 40
-6e-08
 40
-6e-08
 40
-6e-08
 40
-6e-08
 40
0.0017622
 40
0.0017622
 40
0.0017622
 40
0.00352447
 40
0.00352447
 40
0.00352447
 40
0.00528673
 40
0.00528673
 40
0.00528673
 40
0.007049
 40
0.007049
 40
0.007049
 40
0.00881126
 40
0.00881126
 40
0.00881126
 40
0.0105735
 40
0.0105735
 40
0.0105735
 40
0.0140981
 40
0.0140981
 40
0.0140981
 40
0.0211471
 40
0.0211471
 40
0.0211471
 40
0.0246716
 40
0.0246716
 40
0.0246716
 40
0.0281962
 40
0.0281962
 40
0.0281962
 40
0.0299584
 40
0.0299584
 40
0.0299584
 40
0.0317207
 40
0.0317207
 40
0.0317207
 40
0.033483
 40
0.033483
 40
0.033483
 40
0.0343641
 40
0.0343641
 40
0.0343641
 40
0.0352452
 40
0.0352452
 40
0.0352452
 40
0.0370075
 40
0.0370075
 40
0.0370075
 40
0.0387698
 40
0.0387698
 40
0.0387698
 40
0.040532
 40
0.040532
 40
0.040532
 40
0.0422943
 40
0.0422943
 40
0.0422943
 40
0.0458188
 40
0.0458188
 40
0.0458188
 40
0.0493434
 40
0.0493434
 40
0.0493434
 40
0.0563924
 40
0.0563924
 40
0.0563924
 40
0.0634415
 40
0.0634415
 40
0.0634415
 40
0.0704905
 40
0.0704905
 40
0.0704905
 40
0.0775396
 40
0.0775396
 40
0.0775396
 40
0.0845886
 40
0.0845886
 40
0.0845886
 40
0.0916377
 40
0.0916377
 40
0.0916377
 40
0.0986868
 40
0.0986868
 40
0.0986868
 40
0.102211
 40
0.102211
 40
0.102211
 40
0.105736
 40
0.105736
 40
0.105736
 40
0.10926
 40
0.10926
 40
0.10926
 40
0.111023
 40
0.111023
 40
0.111023
 40
0.112785
 40
0.112785
 40
0.112785
 40
0.112785
 10
-0.95
 20
-1.3
 30
18.5
 10
-0.95
 20
-1.83289
 30
18.2528
 10
-0.95
 20
-2.37751
 30
18.0294
 10
-0.95
 20
-2.94046
 30
17.8562
 10
-0.95
 20
-3.50354
 30
17.6802
 10
-0.95
 20
-4.07408
 30
17.5675
 10
-0.95
 20
-4.65206
 30
17.518
 10
-0.95
 20
-5.22757
 30
17.4706
 10
-0.95
 20
-5.82165
 30
17.4971
 10
-0.95
 20
-6.40171
 30
17.5924
 10
-0.95
 20
-6.97829
 30
17.69
 10
-0.95
 20
-7.54033
 30
17.8414
 10
-0.95
 20
-8.08783
 30
18.0465
 10
-0.95
 20
-8.63621
 30
18.2483
 10
-0.95
 20
-9.17284
 30
18.4945
 10
-0.95
 20
-9.69198
 30
18.764
 10
-0.95
 20
-10.2102
 30
19.0352
 10
-0.95
 20
-10.7171
 30
19.3261
 10
-0.95
 20
-11.2127
 30
19.6368
 10
-0.95
 20
-12.2057
 30
20.2551
 10
-0.95
 20
-13.165
 30
20.9318
 10
-0.95
 20
-14.1109
 30
21.6232
 10
-0.95
 20
-16.0018
 30
23.0072
 10
-0.95
 20
-17.8471
 30
24.454
 10
-0.95
 20
-19.7529
 30
25.8175
 10
-0.95
 20
-20.7055
 30
26.4998
 10
-0.95
 20
-21.674
 30
27.1641
 10
-0.95
 20
-22.6656
 30
27.7844
 10
-0.95
 20
-23.6571
 30
28.4047
 10
-0.95
 20
-24.6704
 30
28.9825
 10
-0.95
 20
-25.7263
 30
29.4771
 10
-0.95
 20
-26.2534
 30
29.7262
 10
-0.95
 20
-26.794
 30
29.9489
 10
-0.95
 20
-27.348
 30
30.1452
 10
-0.95
 20
-27.903
 30
30.3397
 10
-0.95
 20
-28.4749
 30
30.5023
 10
-0.95
 20
-29.0521
 30
30.6101
 10
-0.95
 20
-29.6273
 30
30.7175
 10
-0.95
 20
-30.2198
 30
30.7727
 10
-0.95
 20
-30.8125
 30
30.7411
 10
-0.95
 20
-31.1074
 30
30.7259
 10
-0.95
 20
-31.3988
 30
30.6869
 10
-0.95
 20
-31.6869
 30
30.6241
 10
-0.95
 20
-31.9774
 30
30.5603
 10
-0.95
 20
-32.2589
 30
30.4697
 10
-0.95
 20
-32.5313
 30
30.3523
 10
-0.95
 20
-33.0686
 30
30.121
 10
-0.95
 20
-33.561
 30
29.7716
 10
-0.95
 20
-33.9688
 30
29.3405
 10
-0.95
 20
-34.3746
 30
28.9129
 10
-0.95
 20
-34.7011
 30
28.4063
 10
-0.95
 20
-34.9542
 30
27.8763
 10
-0.95
 20
-35.2068
 30
27.3474
 10
-0.95
 20
-35.3942
 30
26.784
 10
-0.95
 20
-35.5344
 30
26.21
 10
-0.95
 20
-35.6711
 30
25.6381
 10
-0.95
 20
-35.7676
 30
25.0648
 10
-0.95
 20
-35.824
 30
24.4902
 10
-0.95
 20
-35.9424
 30
23.3412
 10
-0.95
 20
-35.9358
 30
22.1879
 10
-0.95
 20
-35.8573
 30
21.0322
 10
-0.95
 20
-35.7789
 30
19.8765
 10
-0.95
 20
-35.6252
 30
18.7151
 10
-0.95
 20
-35.4227
 30
17.5707
 10
-0.95
 20
-35.0163
 30
15.2822
 10
-0.95
 20
-34.4195
 30
13.0391
 10
-0.95
 20
-33.7078
 30
10.8233
 10
-0.95
 20
-32.9935
 30
8.60615
 10
-0.95
 20
-32.1667
 30
6.43977
 10
-0.95
 20
-31.2607
 30
4.31725
 10
-0.95
 20
-30.3518
 30
2.19514
 10
-0.95
 20
-29.3677
 30
0.11071
 10
-0.95
 20
-28.3085
 30
-1.93604
 10
-0.95
 20
-27.2506
 30
-3.98349
 10
-0.95
 20
-26.1265
 30
-5.99768
 10
-0.95
 20
-24.936
 30
-7.9786
 10
-0.95
 20
-23.747
 30
-9.9587
 10
-0.95
 20
-22.4907
 30
-11.912
 10
-0.95
 20
-21.1755
 30
-13.8228
 10
-0.95
 20
-19.8627
 30
-15.7328
 10
-0.95
 20
-18.491
 30
-17.5933
 10
-0.95
 20
-17.0606
 30
-19.4043
 10
-0.95
 20
-15.6291
 30
-21.2143
 10
-0.95
 20
-14.1366
 30
-22.9729
 10
-0.95
 20
-12.5573
 30
-24.6583
 10
-0.95
 20
-11.7691
 30
-25.5023
 10
-0.95
 20
-10.9547
 30
-26.324
 10
-0.95
 20
-10.1139
 30
-27.1237
 10
-0.95
 20
-9.27272
 30
-27.9208
 10
-0.95
 20
-8.39608
 30
-28.6978
 10
-0.95
 20
-7.4824
 30
-29.4225
 10
-0.95
 20
-6.56881
 30
-30.1448
 10
-0.95
 20
-5.62298
 30
-30.8187
 10
-0.95
 20
-4.6056
 30
-31.3853
 10
-0.95
 20
-4.09783
 30
-31.667
 10
-0.95
 20
-3.56462
 30
-31.9241
 10
-0.95
 20
-3.01143
 30
-32.1245
 10
-0.95
 20
-2.45985
 30
-32.3229
 10
-0.95
 20
-1.89431
 30
-32.4672
 10
-0.95
 20
-1.3
 30
-32.5
  0
SPLINE
  5
B74
330
A02
100
AcDbEntity
  8
Solid001
100
AcDbSpline
210
0
220
0
230
1
 70
8
 71
3
 72
14
 73
10
 74
0
 40
0
 40
0
 40
0
 40
0
 40
0.000734912
 40
0.000734912
 40
0.000734912
 40
0.00146982
 40
0.00146982
 40
0.00146982
 40
0.00293965
 40
0.00293965
 40
0.00293965
 40
0.00293965
 10
0.95
 20
-1.3
 30
18.5
 10
1.1973
 20
-1.3
 30
18.5003
 10
1.4407
 20
-1.3
 30
18.4434
 10
1.66465
 20
-1.3
 30
18.337
 10
1.88653
 20
-1.3
 30
18.2314
 10
2.08603
 20
-1.3
 30
18.077
 10
2.24789
 20
-1.3
 30
17.8925
 10
2.57415
 20
-1.3
 30
17.521
 10
2.75045
 20
-1.3
 30
17.0294
 10
2.75
 20
-1.3
 30
16.5358
  0
SPLINE
  5
B75
330
A02
100
AcDbEntity
  8
Solid001
100
AcDbSpline
210
0
220
0
230
1
 70
8
 71
3
 72
104
 73
100
 74
0
 40
-6e-08
 40
-6e-08
 40
-6e-08
 40
-6e-08
 40
0.0017509
 40
0.0017509
 40
0.0017509
 40
0.00350185
 40
0.00350185
 40
0.00350185
 40
0.00700376
 40
0.00700376
 40
0.00700376
 40
0.0105057
 40
0.0105057
 40
0.0105057
 40
0.0140076
 40
0.0140076
 40
0.0140076
 40
0.0210114
 40
0.0210114
 40
0.0210114
 40
0.0280152
 40
0.0280152
 40
0.0280152
 40
0.0350191
 40
0.0350191
 40
0.0350191
 40
0.0420229
 40
0.0420229
 40
0.0420229
 40
0.0490267
 40
0.0490267
 40
0.0490267
 40
0.0560305
 40
0.0560305
 40
0.0560305
 40
0.0630343
 40
0.0630343
 40
0.0630343
 40
0.0665363
 40
0.0665363
 40
0.0665363
 40
0.0700382
 40
0.0700382
 40
0.0700382
 40
0.0717891
 40
0.0717891
 40
0.0717891
 40
0.0735401
 40
0.0735401
 40
0.0735401
 40
0.075291
 40
0.075291
 40
0.075291
 40
0.077042
 40
0.077042
 40
0.077042
 40
0.0779175
 40
0.0779175
 40
0.0779175
 40
0.0787929
 40
0.0787929
 40
0.0787929
 40
0.0805439
 40
0.0805439
 40
0.0805439
 40
0.0822949
 40
0.0822949
 40
0.0822949
 40
0.0840458
 40
0.0840458
 40
0.0840458
 40
0.0875477
 40
0.0875477
 40
0.0875477
 40
0.0910496
 40
0.0910496
 40
0.0910496
 40
0.0980535
 40
0.0980535
 40
0.0980535
 40
0.101555
 40
0.101555
 40
0.101555
 40
0.103306
 40
0.103306
 40
0.103306
 40
0.105057
 40
0.105057
 40
0.105057
 40
0.106808
 40
0.106808
 40
0.106808
 40
0.108559
 40
0.108559
 40
0.108559
 40
0.11031
 40
0.11031
 40
0.11031
 40
0.112061
 40
0.112061
 40
0.112061
 40
0.112061
 10
0.95
 20
-1.3
 30
-32.5
 10
0.95
 20
-1.89411
 30
-32.467
 10
0.95
 20
-2.45999
 30
-32.323
 10
0.95
 20
-3.01143
 30
-32.1245
 10
0.95
 20
-3.56462
 30
-31.9241
 10
0.95
 20
-4.09783
 30
-31.667
 10
0.95
 20
-4.6056
 30
-31.3853
 10
0.95
 20
-5.62298
 30
-30.8187
 10
0.95
 20
-6.56881
 30
-30.1448
 10
0.95
 20
-7.4824
 30
-29.4225
 10
0.95
 20
-8.39608
 30
-28.6978
 10
0.95
 20
-9.27272
 30
-27.9208
 10
0.95
 20
-10.1139
 30
-27.1237
 10
0.95
 20
-10.9547
 30
-26.324
 10
0.95
 20
-11.7691
 30
-25.5023
 10
0.95
 20
-12.5573
 30
-24.6583
 10
0.95
 20
-14.1366
 30
-22.9729
 10
0.95
 20
-15.6291
 30
-21.2143
 10
0.95
 20
-17.0606
 30
-19.4043
 10
0.95
 20
-18.491
 30
-17.5933
 10
0.95
 20
-19.8627
 30
-15.7328
 10
0.95
 20
-21.1755
 30
-13.8228
 10
0.95
 20
-22.4907
 30
-11.912
 10
0.95
 20
-23.747
 30
-9.9587
 10
0.95
 20
-24.936
 30
-7.9786
 10
0.95
 20
-26.1265
 30
-5.99768
 10
0.95
 20
-27.2506
 30
-3.98349
 10
0.95
 20
-28.3085
 30
-1.93604
 10
0.95
 20
-29.3677
 30
0.11071
 10
0.95
 20
-30.3518
 30
2.19514
 10
0.95
 20
-31.2607
 30
4.31725
 10
0.95
 20
-32.1667
 30
6.43977
 10
0.95
 20
-32.9935
 30
8.60615
 10
0.95
 20
-33.7078
 30
10.8233
 10
0.95
 20
-34.4195
 30
13.0391
 10
0.95
 20
-35.0163
 30
15.2822
 10
0.95
 20
-35.4227
 30
17.5707
 10
0.95
 20
-35.6252
 30
18.7151
 10
0.95
 20
-35.7789
 30
19.8765
 10
0.95
 20
-35.8573
 30
21.0322
 10
0.95
 20
-35.9358
 30
22.1879
 10
0.95
 20
-35.9424
 30
23.3412
 10
0.95
 20
-35.824
 30
24.4902
 10
0.95
 20
-35.7676
 30
25.0648
 10
0.95
 20
-35.6711
 30
25.6381
 10
0.95
 20
-35.5344
 30
26.21
 10
0.95
 20
-35.3942
 30
26.784
 10
0.95
 20
-35.2068
 30
27.3474
 10
0.95
 20
-34.9542
 30
27.8763
 10
0.95
 20
-34.7011
 30
28.4063
 10
0.95
 20
-34.3746
 30
28.9129
 10
0.95
 20
-33.9688
 30
29.3405
 10
0.95
 20
-33.561
 30
29.7716
 10
0.95
 20
-33.0686
 30
30.121
 10
0.95
 20
-32.5313
 30
30.3523
 10
0.95
 20
-32.2589
 30
30.4697
 10
0.95
 20
-31.9774
 30
30.5603
 10
0.95
 20
-31.6869
 30
30.6241
 10
0.95
 20
-31.3988
 30
30.6869
 10
0.95
 20
-31.1074
 30
30.7259
 10
0.95
 20
-30.8125
 30
30.7411
 10
0.95
 20
-30.2198
 30
30.7727
 10
0.95
 20
-29.6273
 30
30.7175
 10
0.95
 20
-29.0521
 30
30.6101
 10
0.95
 20
-28.4749
 30
30.5023
 10
0.95
 20
-27.903
 30
30.3397
 10
0.95
 20
-27.348
 30
30.1452
 10
0.95
 20
-26.794
 30
29.9489
 10
0.95
 20
-26.2534
 30
29.7262
 10
0.95
 20
-25.7263
 30
29.4771
 10
0.95
 20
-24.6704
 30
28.9825
 10
0.95
 20
-23.6571
 30
28.4047
 10
0.95
 20
-22.6656
 30
27.7844
 10
0.95
 20
-21.674
 30
27.1641
 10
0.95
 20
-20.7055
 30
26.4998
 10
0.95
 20
-19.7529
 30
25.8175
 10
0.95
 20
-17.8471
 30
24.454
 10
0.95
 20
-16.0018
 30
23.0072
 10
0.95
 20
-14.1109
 30
21.6232
 10
0.95
 20
-13.165
 30
20.9318
 10
0.95
 20
-12.2057
 30
20.2551
 10
0.95
 20
-11.2127
 30
19.6368
 10
0.95
 20
-10.7171
 30
19.3261
 10
0.95
 20
-10.2102
 30
19.0352
 10
0.95
 20
-9.69198
 30
18.764
 10
0.95
 20
-9.17284
 30
18.4945
 10
0.95
 20
-8.63621
 30
18.2483
 10
0.95
 20
-8.08783
 30
18.0465
 10
0.95
 20
-7.54033
 30
17.8414
 10
0.95
 20
-6.97829
 30
17.69
 10
0.95
 20
-6.40171
 30
17.5924
 10
0.95
 20
-5.82165
 30
17.4971
 10
0.95
 20
-5.22757
 30
17.4706
 10
0.95
 20
-4.65206
 30
17.518
 10
0.95
 20
-4.07408
 30
17.5675
 10
0.95
 20
-3.50354
 30
17.6802
 10
0.95
 20
-2.94046
 30
17.8562
 10
0.95
 20
-2.37751
 30
18.0294
 10
0.95
 20
-1.83394
 30
18.2523
 10
0.95
 20
-1.3
 30
18.5
  0
SPLINE
  5
B76
330
A02
100
AcDbEntity
  8
Solid001
100
AcDbSpline
210
0
220
0
230
1
 70
8
 71
3
 72
14
 73
10
 74
0
 40
3.49645e-18
 40
3.49645e-18
 40
3.49645e-18
 40
3.49645e-18
 40
0.000703866
 40
0.000703866
 40
0.000703866
 40
0.00140773
 40
0.00140773
 40
0.00140773
 40
0.00281547
 40
0.00281547
 40
0.00281547
 40
0.00281547
 10
2.75
 20
-1.3
 30
-30.6957
 10
2.74968
 20
-1.3
 30
-30.9343
 10
2.70417
 20
-1.3
 30
-31.1642
 10
2.61345
 20
-1.3
 30
-31.3856
 10
2.52417
 20
-1.3
 30
-31.6028
 10
2.3913
 20
-1.3
 30
-31.8026
 10
2.22422
 20
-1.3
 30
-31.9705
 10
1.89111
 20
-1.3
 30
-32.3061
 10
1.42712
 20
-1.3
 30
-32.5011
 10
0.95
 20
-1.3
 30
-32.5
  0
SPLINE
  5
B77
330
A02
100
AcDbEntity
  8
Solid001
100
AcDbSpline
210
0
220
0
230
1
 70
8
 71
3
 72
92
 73
88
 74
0
 40
0
 40
0
 40
0
 40
0
 40
0.00335128
 40
0.00335128
 40
0.00335128
 40
0.00502691
 40
0.00502691
 40
0.00502691
 40
0.00670255
 40
0.00670255
 40
0.00670255
 40
0.0100538
 40
0.0100538
 40
0.0100538
 40
0.0134051
 40
0.0134051
 40
0.0134051
 40
0.0201077
 40
0.0201077
 40
0.0201077
 40
0.0268102
 40
0.0268102
 40
0.0268102
 40
0.0301615
 40
0.0301615
 40
0.0301615
 40
0.0318371
 40
0.0318371
 40
0.0318371
 40
0.0326749
 40
0.0326749
 40
0.0326749
 40
0.0335128
 40
0.0335128
 40
0.0335128
 40
0.0343506
 40
0.0343506
 40
0.0343506
 40
0.0351884
 40
0.0351884
 40
0.0351884
 40
0.036864
 40
0.036864
 40
0.036864
 40
0.0385397
 40
0.0385397
 40
0.0385397
 40
0.0402153
 40
0.0402153
 40
0.0402153
 40
0.0435666
 40
0.0435666
 40
0.0435666
 40
0.0469179
 40
0.0469179
 40
0.0469179
 40
0.0536204
 40
0.0536204
 40
0.0536204
 40
0.060323
 40
0.060323
 40
0.060323
 40
0.0670255
 40
0.0670255
 40
0.0670255
 40
0.0737281
 40
0.0737281
 40
0.0737281
 40
0.0804306
 40
0.0804306
 40
0.0804306
 40
0.0871332
 40
0.0871332
 40
0.0871332
 40
0.0938357
 40
0.0938357
 40
0.0938357
 40
0.100538
 40
0.100538
 40
0.100538
 40
0.10389
 40
0.10389
 40
0.10389
 40
0.105565
 40
0.105565
 40
0.105565
 40
0.107241
 40
0.107241
 40
0.107241
 40
0.107241
 10
2.75
 20
-1.3
 30
16.5358
 10
2.75
 20
-2.33626
 30
16.1098
 10
2.75
 20
-3.42116
 30
15.8079
 10
2.75
 20
-4.51518
 30
15.7232
 10
2.75
 20
-5.06389
 30
15.6791
 10
2.75
 20
-5.61762
 30
15.6867
 10
2.75
 20
-6.17636
 30
15.7462
 10
2.75
 20
-6.73179
 30
15.8073
 10
2.75
 20
-7.27523
 30
15.9132
 10
2.75
 20
-7.80666
 30
16.064
 10
2.75
 20
-8.8687
 30
16.3613
 10
2.75
 20
-9.89912
 30
16.8234
 10
2.75
 20
-10.8719
 30
17.3529
 10
2.75
 20
-11.847
 30
17.8833
 10
2.75
 20
-12.7815
 30
18.4866
 10
2.75
 20
-13.6974
 30
19.1187
 10
2.75
 20
-15.5277
 30
20.3849
 10
2.75
 20
-17.282
 30
21.7558
 10
2.75
 20
-19.0672
 30
23.0841
 10
2.75
 20
-20.8502
 30
24.4107
 10
2.75
 20
-22.6621
 30
25.7194
 10
2.75
 20
-24.579
 30
26.8377
 10
2.75
 20
-25.5376
 30
27.3938
 10
2.75
 20
-26.5202
 30
27.9032
 10
2.75
 20
-27.5584
 30
28.3048
 10
2.75
 20
-28.0778
 30
28.5049
 10
2.75
 20
-28.6163
 30
28.6782
 10
2.75
 20
-29.1623
 30
28.7963
 10
2.75
 20
-29.4352
 30
28.8563
 10
2.75
 20
-29.7109
 30
28.8997
 10
2.75
 20
-29.9895
 30
28.9266
 10
2.75
 20
-30.2701
 30
28.9542
 10
2.75
 20
-30.551
 30
28.9572
 10
2.75
 20
-30.8322
 30
28.9357
 10
2.75
 20
-31.1109
 30
28.9126
 10
2.75
 20
-31.3884
 30
28.8599
 10
2.75
 20
-31.6557
 30
28.764
 10
2.75
 20
-31.9217
 30
28.6689
 10
2.75
 20
-32.1657
 30
28.5328
 10
2.75
 20
-32.3875
 30
28.3556
 10
2.75
 20
-32.8294
 30
28.0016
 10
2.75
 20
-33.1438
 30
27.513
 10
2.75
 20
-33.3743
 30
27.0053
 10
2.75
 20
-33.604
 30
26.498
 10
2.75
 20
-33.7601
 30
25.9493
 10
2.75
 20
-33.8697
 30
25.4048
 10
2.75
 20
-33.976
 30
24.8605
 10
2.75
 20
-34.0456
 30
24.3151
 10
2.75
 20
-34.0785
 30
23.7687
 10
2.75
 20
-34.15
 30
22.6759
 10
2.75
 20
-34.11
 30
21.5799
 10
2.75
 20
-34.007
 30
20.482
 10
2.75
 20
-33.9035
 30
19.3823
 10
2.75
 20
-33.7347
 30
18.2857
 10
2.75
 20
-33.5239
 30
17.2056
 10
2.75
 20
-33.1003
 30
15.0431
 10
2.75
 20
-32.5089
 30
12.9201
 10
2.75
 20
-31.8137
 30
10.8224
 10
2.75
 20
-31.1175
 30
8.72537
 10
2.75
 20
-30.3216
 30
6.67834
 10
2.75
 20
-29.4523
 30
4.66811
 10
2.75
 20
-28.5811
 30
2.65884
 10
2.75
 20
-27.6414
 30
0.683911
 10
2.75
 20
-26.6333
 30
-1.25669
 10
2.75
 20
-25.6265
 30
-3.19788
 10
2.75
 20
-24.5589
 30
-5.10864
 10
2.75
 20
-23.4306
 30
-6.98895
 10
2.75
 20
-22.3037
 30
-8.86858
 10
2.75
 20
-21.1155
 30
-10.7231
 10
2.75
 20
-19.8725
 30
-12.5403
 10
2.75
 20
-18.6315
 30
-14.3567
 10
2.75
 20
-17.3372
 30
-16.1282
 10
2.75
 20
-15.9894
 30
-17.8546
 10
2.75
 20
-14.6406
 30
-19.5802
 10
2.75
 20
-13.2366
 30
-21.2593
 10
2.75
 20
-11.7565
 30
-22.8743
 10
2.75
 20
-10.2752
 30
-24.4866
 10
2.75
 20
-8.72317
 30
-26.0457
 10
2.75
 20
-7.0247
 30
-27.4733
 10
2.75
 20
-6.17455
 30
-28.1841
 10
2.75
 20
-5.2974
 30
-28.8547
 10
2.75
 20
-4.36257
 30
-29.4394
 10
2.75
 20
-3.89478
 30
-29.7312
 10
2.75
 20
-3.41247
 30
-30.0013
 10
2.75
 20
-2.90139
 30
-30.2287
 10
2.75
 20
-2.38831
 30
-30.4534
 10
2.75
 20
-1.86195
 30
-30.6422
 10
2.75
 20
-1.3
 30
-30.6957
  0
ARC
  5
B78
330
A02
100
AcDbEntity
  8
Solid001
100
AcDbCircle
 10
-6
 20
-2.5
 30
11
 40
0
100
AcDbArc
 50
90
 51
0
  0
ARC
  5
B79
330
A02
100
AcDbEntity
  8
Solid001
100
AcDbCircle
 10
-6
 20
-2.5
 30
11
 40
4.44089e-16
100
AcDbArc
 50
-90
 51
90
  0
LINE
  5
B7A
330
A02
100
AcDbEntity
  8
Solid001
100
AcDbLine
 10
-2.75
 20
-2.5
 30
9
 11
-6
 21
-2.5
 31
9
  0
ARC
  5
B7B
330
A02
100
AcDbEntity
  8
Solid001
100
AcDbCircle
 10
-2.75
 20
-2.5
 30
11
 40
4.44089e-16
100
AcDbArc
 50
-90
 51
90
  0
LINE
  5
B7C
330
A02
100
AcDbEntity
  8
Solid001
100
AcDbLine
 10
-2.75
 20
-2.5
 30
13
 11
-6
 21
-2.5
 31
13
  0
ARC
  5
B7D
330
A02
100
AcDbEntity
  8
Solid001
100
AcDbCircle
 10
-6
 20
-2.5
 30
11
 40
4.44089e-16
100
AcDbArc
 50
-90
 51
90
  0
LINE
  5
B7E
330
A02
100
AcDbEntity
  8
Solid001
100
AcDbLine
 10
6
 20
-2.5
 30
9
 11
2.75
 21
-2.5
 31
9
  0
ARC
  5
B7F
330
A02
100
AcDbEntity
  8
Solid001
100
AcDbCircle
 10
6
 20
-2.5
 30
11
 40
0
100
AcDbArc
 50
-90
 51
0
  0
LINE
  5
B80
330
A02
100
AcDbEntity
  8
Solid001
100
AcDbLine
 10
6
 20
-2.5
 30
13
 11
2.75
 21
-2.5
 31
13
  0
ARC
  5
B81
330
A02
100
AcDbEntity
  8
Solid001
100
AcDbCircle
 10
2.75
 20
-2.5
 30
11
 40
4.44089e-16
100
AcDbArc
 50
-90
 51
90
  0
ARC
  5
B82
330
A02
100
AcDbEntity
  8
Solid001
100
AcDbCircle
 10
6
 20
-2.5
 30
11
 40
0
100
AcDbArc
 50
-90
 51
0
  0
ARC
  5
B83
330
A02
100
AcDbEntity
  8
Solid001
100
AcDbCircle
 10
6
 20
-2.5
 30
11
 40
4.44089e-16
100
AcDbArc
 50
90
 51
-90
  0
LINE
  5
B84
330
A02
100
AcDbEntity
  8
Compound
100
AcDbLine
 10
6
 20
-2.5
 30
13
 11
3.5
 21
-2.5
 31
13
  0
ARC
  5
B85
330
A02
100
AcDbEntity
  8
Compound
100
AcDbCircle
 10
3.5
 20
-2.5
 30
11
 40
4.44089e-16
100
AcDbArc
 50
-90
 51
90
  0
LINE
  5
B86
330
A02
100
AcDbEntity
  8
Compound
100
AcDbLine
 10
6
 20
-2.5
 30
9
 11
3.5
 21
-2.5
 31
9
  0
ARC
  5
B87
330
A02
100
AcDbEntity
  8
Compound
100
AcDbCircle
 10
6
 20
-2.5
 30
11
 40
4.44089e-16
100
AcDbArc
 50
-90
 51
90
  0
LINE
  5
B88
330
A02
100
AcDbEntity
  8
Compound
100
AcDbLine
 10
-3.5
 20
-2.5
 30
13
 11
-6
 21
-2.5
 31
13
  0
ARC
  5
B89
330
A02
100
AcDbEntity
  8
Compound
100
AcDbCircle
 10
-6
 20
-2.5
 30
11
 40
4.44089e-16
100
AcDbArc
 50
-90
 51
90
  0
LINE
  5
B8A
330
A02
100
AcDbEntity
  8
Compound
100
AcDbLine
 10
-3.5
 20
-2.5
 30
9
 11
-6
 21
-2.5
 31
9
  0
ARC
  5
B8B
330
A02
100
AcDbEntity
  8
Compound
100
AcDbCircle
 10
-3.5
 20
-2.5
 30
11
 40
4.44089e-16
100
AcDbArc
 50
-90
 51
90
  0
LINE
  5
B8C
330
A02
100
AcDbEntity
  8
Compound
100
AcDbLine
 10
3.5
 20
2.5
 30
27.4783
 11
3.5
 21
0
 31
27.4783
  0
ARC
  5
B8D
330
A02
100
AcDbEntity
  8
Compound
100
AcDbCircle
 10
0
 20
2.5
 30
33.25
 40
0
100
AcDbArc
 50
0
 51
0
  0
LINE
  5
B8E
330
A02
100
AcDbEntity
  8
Compound
100
AcDbLine
 10
0
 20
0
 30
40
 11
0
 21
2.5
 31
40
  0
ARC
  5
B8F
330
A02
100
AcDbEntity
  8
Compound
100
AcDbCircle
 10
0
 20
0
 30
33.25
 40
0
100
AcDbArc
 50
0
 51
0
  0
LINE
  5
B90
330
A02
100
AcDbEntity
  8
Compound
100
AcDbLine
 10
0
 20
0.2
 30
-50.75
 11
0
 21
2.5
 31
-48.75
  0
ARC
  5
B91
330
A02
100
AcDbEntity
  8
Compound
100
AcDbCircle
 10
0
 20
2.5
 30
-52.5
 40
0
100
AcDbArc
 50
180
 51
0
  0
LINE
  5
B92
330
A02
100
AcDbEntity
  8
Compound
100
AcDbLine
 10
2.14313e-16
 20
0.2
 30
-54.25
 11
4.59243e-16
 21
2.5
 31
-56.25
  0
ARC
  5
B93
330
A02
100
AcDbEntity
  8
Compound
100
AcDbCircle
 10
0
 20
0.2
 30
-52.5
 40
2.14313e-16
100
AcDbArc
 50
180
 51
0
  0
LINE
  5
B94
330
A02
100
AcDbEntity
  8
Compound
100
AcDbLine
 10
0
 20
0.2
 30
54.25
 11
0
 21
2.5
 31
56.25
  0
ARC
  5
B95
330
A02
100
AcDbEntity
  8
Compound
100
AcDbCircle
 10
0
 20
2.5
 30
52.5
 40
0
100
AcDbArc
 50
180
 51
0
  0
LINE
  5
B96
330
A02
100
AcDbEntity
  8
Compound
100
AcDbLine
 10
2.14313e-16
 20
0.2
 30
50.75
 11
4.59243e-16
 21
2.5
 31
48.75
  0
ARC
  5
B97
330
A02
100
AcDbEntity
  8
Compound
100
AcDbCircle
 10
0
 20
0.2
 30
52.5
 40
2.14313e-16
100
AcDbArc
 50
180
 51
0
  0
LINE
  5
B98
330
A02
100
AcDbEntity
  8
Compound
100
AcDbLine
 10
0
 20
0
 30
-50.75
 11
0
 21
0.2
 31
-50.75
  0
ARC
  5
B99
330
A02
100
AcDbEntity
  8
Compound
100
AcDbCircle
 10
0
 20
0.2
 30
-52.5
 40
2.14313e-16
100
AcDbArc
 50
180
 51
0
  0
LINE
  5
B9A
330
A02
100
AcDbEntity
  8
Compound
100
AcDbLine
 10
2.14313e-16
 20
0
 30
-54.25
 11
2.14313e-16
 21
0.2
 31
-54.25
  0
ARC
  5
B9B
330
A02
100
AcDbEntity
  8
Compound
100
AcDbCircle
 10
0
 20
0
 30
-52.5
 40
2.14313e-16
100
AcDbArc
 50
180
 51
0
  0
LINE
  5
B9C
330
A02
100
AcDbEntity
  8
Compound
100
AcDbLine
 10
0
 20
0
 30
54.25
 11
0
 21
0.2
 31
54.25
  0
ARC
  5
B9D
330
A02
100
AcDbEntity
  8
Compound
100
AcDbCircle
 10
0
 20
0.2
 30
52.5
 40
2.14313e-16
100
AcDbArc
 50
180
 51
0
  0
LINE
  5
B9E
330
A02
100
AcDbEntity
  8
Compound
100
AcDbLine
 10
2.14313e-16
 20
0
 30
50.75
 11
2.14313e-16
 21
0.2
 31
50.75
  0
ARC
  5
B9F
330
A02
100
AcDbEntity
  8
Compound
100
AcDbCircle
 10
0
 20
0
 30
52.5
 40
2.14313e-16
100
AcDbArc
 50
180
 51
0
  0
ARC
  5
BA0
330
A02
100
AcDbEntity
  8
Compound
100
AcDbCircle
 10
0
 20
0
 30
-52.5
 40
0
100
AcDbArc
 50
0
 51
0
  0
ARC
  5
BA1
330
A02
100
AcDbEntity
  8
Compound
100
AcDbCircle
 10
0
 20
0
 30
-52.5
 40
2.14313e-16
100
AcDbArc
 50
180
 51
0
  0
ARC
  5
BA2
330
A02
100
AcDbEntity
  8
Compound
100
AcDbCircle
 10
0
 20
0
 30
52.5
 40
0
100
AcDbArc
 50
0
 51
0
  0
ARC
  5
BA3
330
A02
100
AcDbEntity
  8
Compound
100
AcDbCircle
 10
0
 20
0
 30
52.5
 40
2.14313e-16
100
AcDbArc
 50
180
 51
0
  0
LINE
  5
BA4
330
A02
100
AcDbEntity
  8
Compound
100
AcDbLine
 10
10
 20
0
 30
60
 11
10
 21
0
 31
-60
  0
LINE
  5
BA5
330
A02
100
AcDbEntity
  8
Compound
100
AcDbLine
 10
-10
 20
0
 30
60
 11
10
 21
0
 31
60
  0
LINE
  5
BA6
330
A02
100
AcDbEntity
  8
Compound
100
AcDbLine
 10
-10
 20
0
 30
-60
 11
-10
 21
0
 31
60
  0
LINE
  5
BA7
330
A02
100
AcDbEntity
  8
Compound
100
AcDbLine
 10
10
 20
0
 30
-60
 11
-10
 21
0
 31
-60
  0
LINE
  5
BA8
330
A02
100
AcDbEntity
  8
Compound
100
AcDbLine
 10
-3.5
 20
0
 30
27.4783
 11
-6
 21
0
 31
27.4783
  0
ARC
  5
BA9
330
A02
100
AcDbEntity
  8
Compound
100
AcDbCircle
 10
0
 20
0
 30
33.25
 40
3.5
100
AcDbArc
 50
180
 51
180
  0
ARC
  5
BAA
330
A02
100
AcDbEntity
  8
Compound
100
AcDbCircle
 10
0
 20
0
 30
33.25
 40
0
100
AcDbArc
 50
0
 51
0
  0
LINE
  5
BAB
330
A02
100
AcDbEntity
  8
Compound
100
AcDbLine
 10
6
 20
0
 30
27.4783
 11
3.5
 21
0
 31
27.4783
  0
LINE
  5
BAC
330
A02
100
AcDbEntity
  8
Compound
100
AcDbLine
 10
6
 20
0
 30
-36.5967
 11
6
 21
0
 31
27.4783
  0
LINE
  5
BAD
330
A02
100
AcDbEntity
  8
Compound
100
AcDbLine
 10
3.5
 20
0
 30
-36.5967
 11
6
 21
0
 31
-36.5967
  0
LINE
  5
BAE
330
A02
100
AcDbEntity
  8
Compound
100
AcDbLine
 10
3.5
 20
0
 30
-36.5
 11
3.5
 21
0
 31
-36.5967
  0
ARC
  5
BAF
330
A02
100
AcDbEntity
  8
Compound
100
AcDbCircle
 10
0
 20
0
 30
-36.5
 40
3.5
100
AcDbArc
 50
180
 51
0
  0
LINE
  5
BB0
330
A02
100
AcDbEntity
  8
Compound
100
AcDbLine
 10
-6
 20
0
 30
-36.5
 11
-3.5
 21
0
 31
-36.5
  0
LINE
  5
BB1
330
A02
100
AcDbEntity
  8
Compound
100
AcDbLine
 10
-6
 20
0
 30
27.4783
 11
-6
 21
0
 31
-36.5
  0
LINE
  5
BB2
330
A02
100
AcDbEntity
  8
Compound
100
AcDbLine
 10
10
 20
0
 30
60
 11
10
 21
0
 31
-60
  0
LINE
  5
BB3
330
A02
100
AcDbEntity
  8
Compound
100
AcDbLine
 10
10
 20
2.5
 30
-60
 11
10
 21
0
 31
-60
  0
LINE
  5
BB4
330
A02
100
AcDbEntity
  8
Compound
100
AcDbLine
 10
10
 20
2.5
 30
60
 11
10
 21
2.5
 31
-60
  0
LINE
  5
BB5
330
A02
100
AcDbEntity
  8
Compound
100
AcDbLine
 10
10
 20
2.5
 30
60
 11
10
 21
0
 31
60
  0
LINE
  5
BB6
330
A02
100
AcDbEntity
  8
Compound
100
AcDbLine
 10
10
 20
0
 30
-60
 11
-10
 21
0
 31
-60
  0
LINE
  5
BB7
330
A02
100
AcDbEntity
  8
Compound
100
AcDbLine
 10
-10
 20
2.5
 30
-60
 11
-10
 21
0
 31
-60
  0
LINE
  5
BB8
330
A02
100
AcDbEntity
  8
Compound
100
AcDbLine
 10
10
 20
2.5
 30
-60
 11
-10
 21
2.5
 31
-60
  0
LINE
  5
BB9
330
A02
100
AcDbEntity
  8
Compound
100
AcDbLine
 10
10
 20
2.5
 30
-60
 11
10
 21
0
 31
-60
  0
LINE
  5
BBA
330
A02
100
AcDbEntity
  8
Compound
100
AcDbLine
 10
-10
 20
0
 30
-60
 11
-10
 21
0
 31
60
  0
LINE
  5
BBB
330
A02
100
AcDbEntity
  8
Compound
100
AcDbLine
 10
-10
 20
2.5
 30
60
 11
-10
 21
0
 31
60
  0
LINE
  5
BBC
330
A02
100
AcDbEntity
  8
Compound
100
AcDbLine
 10
-10
 20
2.5
 30
-60
 11
-10
 21
2.5
 31
60
  0
LINE
  5
BBD
330
A02
100
AcDbEntity
  8
Compound
100
AcDbLine
 10
-10
 20
2.5
 30
-60
 11
-10
 21
0
 31
-60
  0
LINE
  5
BBE
330
A02
100
AcDbEntity
  8
Compound
100
AcDbLine
 10
-10
 20
0
 30
60
 11
10
 21
0
 31
60
  0
LINE
  5
BBF
330
A02
100
AcDbEntity
  8
Compound
100
AcDbLine
 10
10
 20
2.5
 30
60
 11
10
 21
0
 31
60
  0
LINE
  5
BC0
330
A02
100
AcDbEntity
  8
Compound
100
AcDbLine
 10
-10
 20
2.5
 30
60
 11
10
 21
2.5
 31
60
  0
LINE
  5
BC1
330
A02
100
AcDbEntity
  8
Compound
100
AcDbLine
 10
-10
 20
2.5
 30
60
 11
-10
 21
0
 31
60
  0
LINE
  5
BC2
330
A02
100
AcDbEntity
  8
Compound
100
AcDbLine
 10
3.5
 20
2.5
 30
27.4783
 11
3.5
 21
2.5
 31
-36.5
  0
ARC
  5
BC3
330
A02
100
AcDbEntity
  8
Compound
100
AcDbCircle
 10
0
 20
2.5
 30
33.25
 40
0
100
AcDbArc
 50
0
 51
0
  0
ARC
  5
BC4
330
A02
100
AcDbEntity
  8
Compound
100
AcDbCircle
 10
0
 20
2.5
 30
33.25
 40
3.5
100
AcDbArc
 50
180
 51
180
  0
LINE
  5
BC5
330
A02
100
AcDbEntity
  8
Compound
100
AcDbLine
 10
-3.5
 20
2.5
 30
-36.5
 11
-3.5
 21
2.5
 31
27.4783
  0
ARC
  5
BC6
330
A02
100
AcDbEntity
  8
Compound
100
AcDbCircle
 10
0
 20
2.5
 30
-36.5
 40
3.5
100
AcDbArc
 50
180
 51
0
  0
ARC
  5
BC7
330
A02
100
AcDbEntity
  8
Compound
100
AcDbCircle
 10
0
 20
2.5
 30
52.5
 40
0
100
AcDbArc
 50
180
 51
0
  0
ARC
  5
BC8
330
A02
100
AcDbEntity
  8
Compound
100
AcDbCircle
 10
0
 20
2.5
 30
52.5
 40
4.59243e-16
100
AcDbArc
 50
0
 51
180
  0
ARC
  5
BC9
330
A02
100
AcDbEntity
  8
Compound
100
AcDbCircle
 10
0
 20
2.5
 30
-52.5
 40
0
100
AcDbArc
 50
180
 51
0
  0
ARC
  5
BCA
330
A02
100
AcDbEntity
  8
Compound
100
AcDbCircle
 10
0
 20
2.5
 30
-52.5
 40
4.59243e-16
100
AcDbArc
 50
0
 51
180
  0
LINE
  5
BCB
330
A02
100
AcDbEntity
  8
Compound
100
AcDbLine
 10
10
 20
2.5
 30
60
 11
10
 21
2.5
 31
-60
  0
LINE
  5
BCC
330
A02
100
AcDbEntity
  8
Compound
100
AcDbLine
 10
10
 20
2.5
 30
-60
 11
-10
 21
2.5
 31
-60
  0
LINE
  5
BCD
330
A02
100
AcDbEntity
  8
Compound
100
AcDbLine
 10
-10
 20
2.5
 30
-60
 11
-10
 21
2.5
 31
60
  0
LINE
  5
BCE
330
A02
100
AcDbEntity
  8
Compound
100
AcDbLine
 10
-10
 20
2.5
 30
60
 11
10
 21
2.5
 31
60
  0
ARC
  5
BCF
330
A02
100
AcDbEntity
  8
Compound
100
AcDbCircle
 10
0
 20
0.2
 30
52.5
 40
0
100
AcDbArc
 50
0
 51
0
  0
LINE
  5
BD0
330
A02
100
AcDbEntity
  8
Compound
100
AcDbLine
 10
0
 20
0
 30
54.25
 11
0
 21
0.2
 31
54.25
  0
ARC
  5
BD1
330
A02
100
AcDbEntity
  8
Compound
100
AcDbCircle
 10
0
 20
0
 30
52.5
 40
0
100
AcDbArc
 50
0
 51
0
  0
LINE
  5
BD2
330
A02
100
AcDbEntity
  8
Compound
100
AcDbLine
 10
2.14313e-16
 20
0
 30
50.75
 11
2.14313e-16
 21
0.2
 31
50.75
  0
ARC
  5
BD3
330
A02
100
AcDbEntity
  8
Compound
100
AcDbCircle
 10
0
 20
0.2
 30
-52.5
 40
0
100
AcDbArc
 50
0
 51
0
  0
LINE
  5
BD4
330
A02
100
AcDbEntity
  8
Compound
100
AcDbLine
 10
0
 20
0
 30
-50.75
 11
0
 21
0.2
 31
-50.75
  0
ARC
  5
BD5
330
A02
100
AcDbEntity
  8
Compound
100
AcDbCircle
 10
0
 20
0
 30
-52.5
 40
0
100
AcDbArc
 50
0
 51
0
  0
LINE
  5
BD6
330
A02
100
AcDbEntity
  8
Compound
100
AcDbLine
 10
2.14313e-16
 20
0
 30
-54.25
 11
2.14313e-16
 21
0.2
 31
-54.25
  0
ARC
  5
BD7
330
A02
100
AcDbEntity
  8
Compound
100
AcDbCircle
 10
0
 20
2.5
 30
52.5
 40
4.59243e-16
100
AcDbArc
 50
0
 51
180
  0
LINE
  5
BD8
330
A02
100
AcDbEntity
  8
Compound
100
AcDbLine
 10
0
 20
0.2
 30
54.25
 11
0
 21
2.5
 31
56.25
  0
ARC
  5
BD9
330
A02
100
AcDbEntity
  8
Compound
100
AcDbCircle
 10
0
 20
0.2
 30
52.5
 40
0
100
AcDbArc
 50
0
 51
0
  0
LINE
  5
BDA
330
A02
100
AcDbEntity
  8
Compound
100
AcDbLine
 10
2.14313e-16
 20
0.2
 30
50.75
 11
4.59243e-16
 21
2.5
 31
48.75
  0
ARC
  5
BDB
330
A02
100
AcDbEntity
  8
Compound
100
AcDbCircle
 10
0
 20
2.5
 30
-52.5
 40
4.59243e-16
100
AcDbArc
 50
0
 51
180
  0
LINE
  5
BDC
330
A02
100
AcDbEntity
  8
Compound
100
AcDbLine
 10
0
 20
0.2
 30
-50.75
 11
0
 21
2.5
 31
-48.75
  0
ARC
  5
BDD
330
A02
100
AcDbEntity
  8
Compound
100
AcDbCircle
 10
0
 20
0.2
 30
-52.5
 40
0
100
AcDbArc
 50
0
 51
0
  0
LINE
  5
BDE
330
A02
100
AcDbEntity
  8
Compound
100
AcDbLine
 10
2.14313e-16
 20
0.2
 30
-54.25
 11
4.59243e-16
 21
2.5
 31
-56.25
  0
ARC
  5
BDF
330
A02
100
AcDbEntity
  8
Compound
100
AcDbCircle
 10
0
 20
2.5
 30
33.25
 40
3.5
100
AcDbArc
 50
180
 51
180
  0
LINE
  5
BE0
330
A02
100
AcDbEntity
  8
Compound
100
AcDbLine
 10
-3.5
 20
0
 30
27.4783
 11
-3.5
 21
2.5
 31
27.4783
  0
ARC
  5
BE1
330
A02
100
AcDbEntity
  8
Compound
100
AcDbCircle
 10
0
 20
0
 30
33.25
 40
3.5
100
AcDbArc
 50
180
 51
180
  0
LINE
  5
BE2
330
A02
100
AcDbEntity
  8
Compound
100
AcDbLine
 10
0
 20
0
 30
40
 11
0
 21
2.5
 31
40
  0
LINE
  5
BE3
330
A02
100
AcDbEntity
  8
Compound
100
AcDbLine
 10
3.5
 20
0
 30
-36.5
 11
3.5
 21
2.5
 31
-36.5
  0
ARC
  5
BE4
330
A02
100
AcDbEntity
  8
Compound
100
AcDbCircle
 10
0
 20
0
 30
-36.5
 40
3.5
100
AcDbArc
 50
180
 51
0
  0
LINE
  5
BE5
330
A02
100
AcDbEntity
  8
Compound
100
AcDbLine
 10
-3.5
 20
2.5
 30
-36.5
 11
-3.5
 21
0
 31
-36.5
  0
ARC
  5
BE6
330
A02
100
AcDbEntity
  8
Compound
100
AcDbCircle
 10
0
 20
2.5
 30
-36.5
 40
3.5
100
AcDbArc
 50
180
 51
0
  0
ARC
  5
BE7
330
A02
100
AcDbEntity
  8
Compound
100
AcDbCircle
 10
3.5
 20
-2.5
 30
11
 40
4.44089e-16
100
AcDbArc
 50
-90
 51
90
  0
ARC
  5
BE8
330
A02
100
AcDbEntity
  8
Compound
100
AcDbCircle
 10
3.5
 20
-2.5
 30
11
 40
0
100
AcDbArc
 50
90
 51
0
  0
LINE
  5
BE9
330
A02
100
AcDbEntity
  8
Compound
100
AcDbLine
 10
3.5
 20
-3
 30
-36.5967
 11
3.5
 21
0
 31
-36.5967
  0
ARC
  5
BEA
330
A02
100
AcDbEntity
  8
Compound
100
AcDbCircle
 10
3.5
 20
-3
 30
-34.5967
 40
0
100
AcDbArc
 50
-90
 51
0
  0
LINE
  5
BEB
330
A02
100
AcDbEntity
  8
Compound
100
AcDbLine
 10
3.5
 20
-5
 30
25.4783
 11
3.5
 21
-5
 31
-34.5967
  0
ARC
  5
BEC
330
A02
100
AcDbEntity
  8
Compound
100
AcDbCircle
 10
3.5
 20
-3
 30
25.4783
 40
2
100
AcDbArc
 50
-90
 51
-90
  0
LINE
  5
BED
330
A02
100
AcDbEntity
  8
Compound
100
AcDbLine
 10
3.5
 20
-3
 30
27.4783
 11
3.5
 21
0
 31
27.4783
  0
LINE
  5
BEE
330
A02
100
AcDbEntity
  8
Compound
100
AcDbLine
 10
3.5
 20
2.5
 30
27.4783
 11
3.5
 21
0
 31
27.4783
  0
LINE
  5
BEF
330
A02
100
AcDbEntity
  8
Compound
100
AcDbLine
 10
3.5
 20
2.5
 30
27.4783
 11
3.5
 21
2.5
 31
-36.5
  0
LINE
  5
BF0
330
A02
100
AcDbEntity
  8
Compound
100
AcDbLine
 10
3.5
 20
0
 30
-36.5
 11
3.5
 21
2.5
 31
-36.5
  0
LINE
  5
BF1
330
A02
100
AcDbEntity
  8
Compound
100
AcDbLine
 10
3.5
 20
0
 30
-36.5
 11
3.5
 21
0
 31
-36.5967
  0
ARC
  5
BF2
330
A02
100
AcDbEntity
  8
Compound
100
AcDbCircle
 10
-3.5
 20
-2.5
 30
11
 40
0
100
AcDbArc
 50
90
 51
0
  0
ARC
  5
BF3
330
A02
100
AcDbEntity
  8
Compound
100
AcDbCircle
 10
-3.5
 20
-2.5
 30
11
 40
4.44089e-16
100
AcDbArc
 50
-90
 51
90
  0
LINE
  5
BF4
330
A02
100
AcDbEntity
  8
Compound
100
AcDbLine
 10
-3.5
 20
-5
 30
-34.5
 11
-3.5
 21
-5
 31
25.4783
  0
ARC
  5
BF5
330
A02
100
AcDbEntity
  8
Compound
100
AcDbCircle
 10
-3.5
 20
-3
 30
-34.5
 40
2
100
AcDbArc
 50
-90
 51
-90
  0
LINE
  5
BF6
330
A02
100
AcDbEntity
  8
Compound
100
AcDbLine
 10
-3.5
 20
-3
 30
-36.5
 11
-3.5
 21
0
 31
-36.5
  0
LINE
  5
BF7
330
A02
100
AcDbEntity
  8
Compound
100
AcDbLine
 10
-3.5
 20
2.5
 30
-36.5
 11
-3.5
 21
0
 31
-36.5
  0
LINE
  5
BF8
330
A02
100
AcDbEntity
  8
Compound
100
AcDbLine
 10
-3.5
 20
2.5
 30
-36.5
 11
-3.5
 21
2.5
 31
27.4783
  0
LINE
  5
BF9
330
A02
100
AcDbEntity
  8
Compound
100
AcDbLine
 10
-3.5
 20
0
 30
27.4783
 11
-3.5
 21
2.5
 31
27.4783
  0
LINE
  5
BFA
330
A02
100
AcDbEntity
  8
Compound
100
AcDbLine
 10
-3.5
 20
-3
 30
27.4783
 11
-3.5
 21
0
 31
27.4783
  0
ARC
  5
BFB
330
A02
100
AcDbEntity
  8
Compound
100
AcDbCircle
 10
-3.5
 20
-3
 30
25.4783
 40
0
100
AcDbArc
 50
-90
 51
0
  0
LINE
  5
BFC
330
A02
100
AcDbEntity
  8
Compound
100
AcDbLine
 10
6
 20
-3
 30
-36.5967
 11
6
 21
0
 31
-36.5967
  0
LINE
  5
BFD
330
A02
100
AcDbEntity
  8
Compound
100
AcDbLine
 10
6
 20
-3
 30
-36.5967
 11
3.5
 21
-3
 31
-36.5967
  0
LINE
  5
BFE
330
A02
100
AcDbEntity
  8
Compound
100
AcDbLine
 10
3.5
 20
-3
 30
-36.5967
 11
3.5
 21
0
 31
-36.5967
  0
LINE
  5
BFF
330
A02
100
AcDbEntity
  8
Compound
100
AcDbLine
 10
3.5
 20
0
 30
-36.5967
 11
6
 21
0
 31
-36.5967
  0
ARC
  5
C00
330
A02
100
AcDbEntity
  8
Compound
100
AcDbCircle
 10
6
 20
-2.5
 30
11
 40
0
100
AcDbArc
 50
90
 51
0
  0
ARC
  5
C01
330
A02
100
AcDbEntity
  8
Compound
100
AcDbCircle
 10
6
 20
-2.5
 30
11
 40
4.44089e-16
100
AcDbArc
 50
-90
 51
90
  0
LINE
  5
C02
330
A02
100
AcDbEntity
  8
Compound
100
AcDbLine
 10
6
 20
-5
 30
-34.5967
 11
6
 21
-5
 31
25.4783
  0
ARC
  5
C03
330
A02
100
AcDbEntity
  8
Compound
100
AcDbCircle
 10
6
 20
-3
 30
-34.5967
 40
2
100
AcDbArc
 50
-90
 51
-90
  0
LINE
  5
C04
330
A02
100
AcDbEntity
  8
Compound
100
AcDbLine
 10
6
 20
-3
 30
-36.5967
 11
6
 21
0
 31
-36.5967
  0
LINE
  5
C05
330
A02
100
AcDbEntity
  8
Compound
100
AcDbLine
 10
6
 20
0
 30
-36.5967
 11
6
 21
0
 31
27.4783
  0
LINE
  5
C06
330
A02
100
AcDbEntity
  8
Compound
100
AcDbLine
 10
6
 20
-3
 30
27.4783
 11
6
 21
0
 31
27.4783
  0
ARC
  5
C07
330
A02
100
AcDbEntity
  8
Compound
100
AcDbCircle
 10
6
 20
-3
 30
25.4783
 40
0
100
AcDbArc
 50
-90
 51
0
  0
LINE
  5
C08
330
A02
100
AcDbEntity
  8
Compound
100
AcDbLine
 10
3.5
 20
-3
 30
27.4783
 11
3.5
 21
0
 31
27.4783
  0
LINE
  5
C09
330
A02
100
AcDbEntity
  8
Compound
100
AcDbLine
 10
3.5
 20
-3
 30
27.4783
 11
6
 21
-3
 31
27.4783
  0
LINE
  5
C0A
330
A02
100
AcDbEntity
  8
Compound
100
AcDbLine
 10
6
 20
-3
 30
27.4783
 11
6
 21
0
 31
27.4783
  0
LINE
  5
C0B
330
A02
100
AcDbEntity
  8
Compound
100
AcDbLine
 10
6
 20
0
 30
27.4783
 11
3.5
 21
0
 31
27.4783
  0
LINE
  5
C0C
330
A02
100
AcDbEntity
  8
Compound
100
AcDbLine
 10
3.5
 20
-5
 30
25.4783
 11
3.5
 21
-5
 31
-34.5967
  0
LINE
  5
C0D
330
A02
100
AcDbEntity
  8
Compound
100
AcDbLine
 10
3.5
 20
-5
 30
-34.5967
 11
6
 21
-5
 31
-34.5967
  0
LINE
  5
C0E
330
A02
100
AcDbEntity
  8
Compound
100
AcDbLine
 10
6
 20
-5
 30
-34.5967
 11
6
 21
-5
 31
25.4783
  0
LINE
  5
C0F
330
A02
100
AcDbEntity
  8
Compound
100
AcDbLine
 10
6
 20
-5
 30
25.4783
 11
3.5
 21
-5
 31
25.4783
  0
LINE
  5
C10
330
A02
100
AcDbEntity
  8
Compound
100
AcDbLine
 10
-6
 20
-3
 30
27.4783
 11
-6
 21
0
 31
27.4783
  0
LINE
  5
C11
330
A02
100
AcDbEntity
  8
Compound
100
AcDbLine
 10
-6
 20
-3
 30
27.4783
 11
-3.5
 21
-3
 31
27.4783
  0
LINE
  5
C12
330
A02
100
AcDbEntity
  8
Compound
100
AcDbLine
 10
-3.5
 20
-3
 30
27.4783
 11
-3.5
 21
0
 31
27.4783
  0
LINE
  5
C13
330
A02
100
AcDbEntity
  8
Compound
100
AcDbLine
 10
-3.5
 20
0
 30
27.4783
 11
-6
 21
0
 31
27.4783
  0
ARC
  5
C14
330
A02
100
AcDbEntity
  8
Compound
100
AcDbCircle
 10
-6
 20
-2.5
 30
11
 40
0
100
AcDbArc
 50
90
 51
0
  0
ARC
  5
C15
330
A02
100
AcDbEntity
  8
Compound
100
AcDbCircle
 10
-6
 20
-2.5
 30
11
 40
4.44089e-16
100
AcDbArc
 50
-90
 51
90
  0
LINE
  5
C16
330
A02
100
AcDbEntity
  8
Compound
100
AcDbLine
 10
-6
 20
-3
 30
-36.5
 11
-6
 21
0
 31
-36.5
  0
ARC
  5
C17
330
A02
100
AcDbEntity
  8
Compound
100
AcDbCircle
 10
-6
 20
-3
 30
-34.5
 40
0
100
AcDbArc
 50
-90
 51
0
  0
LINE
  5
C18
330
A02
100
AcDbEntity
  8
Compound
100
AcDbLine
 10
-6
 20
-5
 30
25.4783
 11
-6
 21
-5
 31
-34.5
  0
ARC
  5
C19
330
A02
100
AcDbEntity
  8
Compound
100
AcDbCircle
 10
-6
 20
-3
 30
25.4783
 40
2
100
AcDbArc
 50
-90
 51
-90
  0
LINE
  5
C1A
330
A02
100
AcDbEntity
  8
Compound
100
AcDbLine
 10
-6
 20
-3
 30
27.4783
 11
-6
 21
0
 31
27.4783
  0
LINE
  5
C1B
330
A02
100
AcDbEntity
  8
Compound
100
AcDbLine
 10
-6
 20
0
 30
27.4783
 11
-6
 21
0
 31
-36.5
  0
LINE
  5
C1C
330
A02
100
AcDbEntity
  8
Compound
100
AcDbLine
 10
-3.5
 20
-3
 30
-36.5
 11
-3.5
 21
0
 31
-36.5
  0
LINE
  5
C1D
330
A02
100
AcDbEntity
  8
Compound
100
AcDbLine
 10
-3.5
 20
-3
 30
-36.5
 11
-6
 21
-3
 31
-36.5
  0
LINE
  5
C1E
330
A02
100
AcDbEntity
  8
Compound
100
AcDbLine
 10
-6
 20
-3
 30
-36.5
 11
-6
 21
0
 31
-36.5
  0
LINE
  5
C1F
330
A02
100
AcDbEntity
  8
Compound
100
AcDbLine
 10
-6
 20
0
 30
-36.5
 11
-3.5
 21
0
 31
-36.5
  0
LINE
  5
C20
330
A02
100
AcDbEntity
  8
Compound
100
AcDbLine
 10
-6
 20
-5
 30
25.4783
 11
-6
 21
-5
 31
-34.5
  0
LINE
  5
C21
330
A02
100
AcDbEntity
  8
Compound
100
AcDbLine
 10
-6
 20
-5
 30
-34.5
 11
-3.5
 21
-5
 31
-34.5
  0
LINE
  5
C22
330
A02
100
AcDbEntity
  8
Compound
100
AcDbLine
 10
-3.5
 20
-5
 30
-34.5
 11
-3.5
 21
-5
 31
25.4783
  0
LINE
  5
C23
330
A02
100
AcDbEntity
  8
Compound
100
AcDbLine
 10
-3.5
 20
-5
 30
25.4783
 11
-6
 21
-5
 31
25.4783
  0
ARC
  5
C24
330
A02
100
AcDbEntity
  8
Compound
100
AcDbCircle
 10
-6
 20
-3
 30
-34.5
 40
0
100
AcDbArc
 50
-90
 51
0
  0
LINE
  5
C25
330
A02
100
AcDbEntity
  8
Compound
100
AcDbLine
 10
-3.5
 20
-3
 30
-36.5
 11
-6
 21
-3
 31
-36.5
  0
ARC
  5
C26
330
A02
100
AcDbEntity
  8
Compound
100
AcDbCircle
 10
-3.5
 20
-3
 30
-34.5
 40
2
100
AcDbArc
 50
-90
 51
-90
  0
LINE
  5
C27
330
A02
100
AcDbEntity
  8
Compound
100
AcDbLine
 10
-6
 20
-5
 30
-34.5
 11
-3.5
 21
-5
 31
-34.5
  0
ARC
  5
C28
330
A02
100
AcDbEntity
  8
Compound
100
AcDbCircle
 10
3.5
 20
-3
 30
-34.5967
 40
0
100
AcDbArc
 50
-90
 51
0
  0
LINE
  5
C29
330
A02
100
AcDbEntity
  8
Compound
100
AcDbLine
 10
6
 20
-3
 30
-36.5967
 11
3.5
 21
-3
 31
-36.5967
  0
ARC
  5
C2A
330
A02
100
AcDbEntity
  8
Compound
100
AcDbCircle
 10
6
 20
-3
 30
-34.5967
 40
2
100
AcDbArc
 50
-90
 51
-90
  0
LINE
  5
C2B
330
A02
100
AcDbEntity
  8
Compound
100
AcDbLine
 10
3.5
 20
-5
 30
-34.5967
 11
6
 21
-5
 31
-34.5967
  0
ARC
  5
C2C
330
A02
100
AcDbEntity
  8
Compound
100
AcDbCircle
 10
6
 20
-3
 30
25.4783
 40
0
100
AcDbArc
 50
-90
 51
0
  0
LINE
  5
C2D
330
A02
100
AcDbEntity
  8
Compound
100
AcDbLine
 10
3.5
 20
-3
 30
27.4783
 11
6
 21
-3
 31
27.4783
  0
ARC
  5
C2E
330
A02
100
AcDbEntity
  8
Compound
100
AcDbCircle
 10
3.5
 20
-3
 30
25.4783
 40
2
100
AcDbArc
 50
-90
 51
-90
  0
LINE
  5
C2F
330
A02
100
AcDbEntity
  8
Compound
100
AcDbLine
 10
6
 20
-5
 30
25.4783
 11
3.5
 21
-5
 31
25.4783
  0
ARC
  5
C30
330
A02
100
AcDbEntity
  8
Compound
100
AcDbCircle
 10
-3.5
 20
-3
 30
25.4783
 40
0
100
AcDbArc
 50
-90
 51
0
  0
LINE
  5
C31
330
A02
100
AcDbEntity
  8
Compound
100
AcDbLine
 10
-6
 20
-3
 30
27.4783
 11
-3.5
 21
-3
 31
27.4783
  0
ARC
  5
C32
330
A02
100
AcDbEntity
  8
Compound
100
AcDbCircle
 10
-6
 20
-3
 30
25.4783
 40
2
100
AcDbArc
 50
-90
 51
-90
  0
LINE
  5
C33
330
A02
100
AcDbEntity
  8
Compound
100
AcDbLine
 10
-3.5
 20
-5
 30
25.4783
 11
-6
 21
-5
 31
25.4783
  0
ARC
  5
C34
330
A02
100
AcDbEntity
  8
Compound
100
AcDbCircle
 10
-6
 20
-2.5
 30
11
 40
0
100
AcDbArc
 50
90
 51
0
  0
LINE
  5
C35
330
A02
100
AcDbEntity
  8
Compound
100
AcDbLine
 10
-3.5
 20
-2.5
 30
13
 11
-6
 21
-2.5
 31
13
  0
ARC
  5
C36
330
A02
100
AcDbEntity
  8
Compound
100
AcDbCircle
 10
-3.5
 20
-2.5
 30
11
 40
0
100
AcDbArc
 50
90
 51
0
  0
LINE
  5
C37
330
A02
100
AcDbEntity
  8
Compound
100
AcDbLine
 10
-3.5
 20
-2.5
 30
9
 11
-6
 21
-2.5
 31
9
  0
ARC
  5
C38
330
A02
100
AcDbEntity
  8
Compound
100
AcDbCircle
 10
3.5
 20
-2.5
 30
11
 40
0
100
AcDbArc
 50
90
 51
0
  0
LINE
  5
C39
330
A02
100
AcDbEntity
  8
Compound
100
AcDbLine
 10
6
 20
-2.5
 30
13
 11
3.5
 21
-2.5
 31
13
  0
ARC
  5
C3A
330
A02
100
AcDbEntity
  8
Compound
100
AcDbCircle
 10
6
 20
-2.5
 30
11
 40
0
100
AcDbArc
 50
90
 51
0
  0
LINE
  5
C3B
330
A02
100
AcDbEntity
  8
Compound
100
AcDbLine
 10
6
 20
-2.5
 30
9
 11
3.5
 21
-2.5
 31
9
  0
ARC
  5
C3C
330
A02
100
AcDbEntity
  8
Compound
100
AcDbCircle
 10
6
 20
-2.5
 30
11
 40
4.44089e-16
100
AcDbArc
 50
90
 51
-90
  0
LINE
  5
C3D
330
A02
100
AcDbEntity
  8
Compound
100
AcDbLine
 10
6
 20
-2.5
 30
9
 11
2.75
 21
-2.5
 31
9
  0
ARC
  5
C3E
330
A02
100
AcDbEntity
  8
Compound
100
AcDbCircle
 10
2.75
 20
-2.5
 30
11
 40
0
100
AcDbArc
 50
90
 51
0
  0
LINE
  5
C3F
330
A02
100
AcDbEntity
  8
Compound
100
AcDbLine
 10
3
 20
-1.3
 30
9.4
 11
2.75
 21
-1.3
 31
9.4
  0
ARC
  5
C40
330
A02
100
AcDbEntity
  8
Compound
100
AcDbCircle
 10
3
 20
-2.5
 30
11
 40
1.2
100
AcDbArc
 50
90
 51
90
  0
LINE
  5
C41
330
A02
100
AcDbEntity
  8
Compound
100
AcDbLine
 10
2.75
 20
-1.3
 30
12.6
 11
3
 21
-1.3
 31
12.6
  0
ARC
  5
C42
330
A02
100
AcDbEntity
  8
Compound
100
AcDbCircle
 10
2.75
 20
-2.5
 30
11
 40
1.2
100
AcDbArc
 50
90
 51
90
  0
LINE
  5
C43
330
A02
100
AcDbEntity
  8
Compound
100
AcDbLine
 10
6
 20
-2.5
 30
13
 11
2.75
 21
-2.5
 31
13
  0
ARC
  5
C44
330
A02
100
AcDbEntity
  8
Compound
100
AcDbCircle
 10
-2.75
 20
-2.5
 30
11
 40
0
100
AcDbArc
 50
90
 51
0
  0
LINE
  5
C45
330
A02
100
AcDbEntity
  8
Compound
100
AcDbLine
 10
-2.75
 20
-2.5
 30
9
 11
-6
 21
-2.5
 31
9
  0
ARC
  5
C46
330
A02
100
AcDbEntity
  8
Compound
100
AcDbCircle
 10
-6
 20
-2.5
 30
11
 40
0
100
AcDbArc
 50
90
 51
0
  0
LINE
  5
C47
330
A02
100
AcDbEntity
  8
Compound
100
AcDbLine
 10
-2.75
 20
-2.5
 30
13
 11
-6
 21
-2.5
 31
13
  0
ARC
  5
C48
330
A02
100
AcDbEntity
  8
Compound
100
AcDbCircle
 10
-2.75
 20
-2.5
 30
11
 40
1.2
100
AcDbArc
 50
90
 51
90
  0
LINE
  5
C49
330
A02
100
AcDbEntity
  8
Compound
100
AcDbLine
 10
-3
 20
-1.3
 30
12.6
 11
-2.75
 21
-1.3
 31
12.6
  0
ARC
  5
C4A
330
A02
100
AcDbEntity
  8
Compound
100
AcDbCircle
 10
-3
 20
-2.5
 30
11
 40
1.2
100
AcDbArc
 50
90
 51
90
  0
LINE
  5
C4B
330
A02
100
AcDbEntity
  8
Compound
100
AcDbLine
 10
-2.75
 20
-1.3
 30
9.4
 11
-3
 21
-1.3
 31
9.4
  0
SPLINE
  5
C4C
330
A02
100
AcDbEntity
  8
Compound
100
AcDbSpline
210
0
220
0
230
1
 70
8
 71
3
 72
59
 73
55
 74
0
 40
0.0624
 40
0.0624
 40
0.0624
 40
0.0624
 40
0.0633692
 40
0.0633692
 40
0.0633692
 40
0.0643385
 40
0.0643385
 40
0.0643385
 40
0.0662769
 40
0.0662769
 40
0.0662769
 40
0.0682154
 40
0.0682154
 40
0.0682154
 40
0.0701539
 40
0.0701539
 40
0.0701539
 40
0.0740308
 40
0.0740308
 40
0.0740308
 40
0.0779077
 40
0.0779077
 40
0.0779077
 40
0.0817847
 40
0.0817847
 40
0.0817847
 40
0.0856616
 40
0.0856616
 40
0.0856616
 40
0.0934154
 40
0.0934154
 40
0.0934154
 40
0.101169
 40
0.101169
 40
0.101169
 40
0.108923
 40
0.108923
 40
0.108923
 40
0.1128
 40
0.1128
 40
0.1128
 40
0.116677
 40
0.116677
 40
0.116677
 40
0.118615
 40
0.118615
 40
0.118615
 40
0.120554
 40
0.120554
 40
0.120554
 40
0.122492
 40
0.122492
 40
0.122492
 40
0.124431
 40
0.124431
 40
0.124431
 40
0.124431
 10
-2.75
 20
-30.767
 30
26.7968
 10
-2.75
 20
-31.042
 30
26.6249
 10
-2.75
 20
-31.2928
 30
26.4257
 10
-2.75
 20
-31.5192
 30
26.1993
 10
-2.75
 20
-31.7464
 30
25.9716
 10
-2.75
 20
-31.9483
 30
25.7228
 10
-2.75
 20
-32.125
 30
25.4532
 10
-2.75
 20
-32.4763
 30
24.9188
 10
-2.75
 20
-32.7196
 30
24.3333
 10
-2.75
 20
-32.892
 30
23.7144
 10
-2.75
 20
-33.0644
 30
23.0954
 10
-2.75
 20
-33.1601
 30
22.4638
 10
-2.75
 20
-33.2089
 30
21.8255
 10
-2.75
 20
-33.2549
 30
21.1859
 10
-2.75
 20
-33.2613
 30
20.5481
 10
-2.75
 20
-33.228
 30
19.912
 10
-2.75
 20
-33.167
 30
18.6424
 10
-2.75
 20
-32.9845
 30
17.3838
 10
-2.75
 20
-32.735
 30
16.1317
 10
-2.75
 20
-32.4856
 30
14.8795
 10
-2.75
 20
-32.1689
 30
13.6449
 10
-2.75
 20
-31.8067
 30
12.4223
 10
-2.75
 20
-31.4423
 30
11.1987
 10
-2.75
 20
-31.0388
 30
9.99166
 10
-2.75
 20
-30.5964
 30
8.80125
 10
-2.75
 20
-30.1554
 30
7.61225
 10
-2.75
 20
-29.6837
 30
6.43855
 10
-2.75
 20
-29.1815
 30
5.28017
 10
-2.75
 20
-28.1768
 30
2.96353
 10
-2.75
 20
-27.0674
 30
0.699209
 10
-2.75
 20
-25.8534
 30
-1.51278
 10
-2.75
 20
-24.6441
 30
-3.72713
 10
-2.75
 20
-23.3281
 30
-5.88811
 10
-2.75
 20
-21.9053
 30
-7.99572
 10
-2.75
 20
-20.4771
 30
-10.1035
 10
-2.75
 20
-18.9509
 30
-12.1359
 10
-2.75
 20
-17.2869
 30
-14.038
 10
-2.75
 20
-16.4539
 30
-14.9891
 10
-2.75
 20
-15.5848
 30
-15.9082
 10
-2.75
 20
-14.6606
 30
-16.7785
 10
-2.75
 20
-13.7385
 30
-17.6458
 10
-2.75
 20
-12.7504
 30
-18.4777
 10
-2.75
 20
-11.6892
 30
-19.1922
 10
-2.75
 20
-11.1611
 30
-19.5511
 10
-2.75
 20
-10.6096
 30
-19.8715
 10
-2.75
 20
-10.0348
 30
-20.1535
 10
-2.75
 20
-9.45714
 30
-20.433
 10
-2.75
 20
-8.8487
 30
-20.6651
 10
-2.75
 20
-8.22673
 30
-20.8071
 10
-2.75
 20
-7.60625
 30
-20.95
 10
-2.75
 20
-6.94527
 30
-21.0042
 10
-2.75
 20
-6.30934
 30
-20.9201
 10
-2.75
 20
-5.66815
 30
-20.8374
 10
-2.75
 20
-5.04545
 30
-20.6131
 10
-2.75
 20
-4.50666
 30
-20.2537
  0
ARC
  5
C4D
330
A02
100
AcDbEntity
  8
Compound
100
AcDbCircle
 10
-0.95
 20
-30.767
 30
26.7968
 40
1.8
100
AcDbArc
 50
90
 51
-180
  0
SPLINE
  5
C4E
330
A02
100
AcDbEntity
  8
Compound
100
AcDbSpline
210
0
220
0
230
1
 70
8
 71
3
 72
59
 73
55
 74
0
 40
8.67362e-19
 40
8.67362e-19
 40
8.67362e-19
 40
8.67362e-19
 40
0.00087633
 40
0.00087633
 40
0.00087633
 40
0.00175266
 40
0.00175266
 40
0.00175266
 40
0.00350532
 40
0.00350532
 40
0.00350532
 40
0.00525798
 40
0.00525798
 40
0.00525798
 40
0.00701064
 40
0.00701064
 40
0.00701064
 40
0.010516
 40
0.010516
 40
0.010516
 40
0.0140213
 40
0.0140213
 40
0.0140213
 40
0.0210319
 40
0.0210319
 40
0.0210319
 40
0.0280426
 40
0.0280426
 40
0.0280426
 40
0.0350532
 40
0.0350532
 40
0.0350532
 40
0.0420639
 40
0.0420639
 40
0.0420639
 40
0.0455692
 40
0.0455692
 40
0.0455692
 40
0.0490745
 40
0.0490745
 40
0.0490745
 40
0.0508272
 40
0.0508272
 40
0.0508272
 40
0.0525798
 40
0.0525798
 40
0.0525798
 40
0.0543325
 40
0.0543325
 40
0.0543325
 40
0.0552088
 40
0.0552088
 40
0.0552088
 40
0.0560851
 40
0.0560851
 40
0.0560851
 40
0.0560851
 10
-0.95
 20
-5.67918
 30
-18.8607
 10
-0.95
 20
-5.93716
 30
-19.0014
 10
-0.95
 20
-6.2201
 30
-19.0898
 10
-0.95
 20
-6.51083
 30
-19.131
 10
-0.95
 20
-6.80201
 30
-19.1696
 10
-0.95
 20
-7.09328
 30
-19.1696
 10
-0.95
 20
-7.38466
 30
-19.1309
 10
-0.95
 20
-7.96151
 30
-19.0578
 10
-0.95
 20
-8.5154
 30
-18.8682
 10
-0.95
 20
-9.04695
 30
-18.6287
 10
-0.95
 20
-9.57606
 30
-18.3891
 10
-0.95
 20
-10.075
 30
-18.1001
 10
-0.95
 20
-10.5571
 30
-17.7833
 10
-0.95
 20
-11.0389
 30
-17.4645
 10
-0.95
 20
-11.5051
 30
-17.1222
 10
-0.95
 20
-11.9557
 30
-16.7563
 10
-0.95
 20
-12.8572
 30
-16.0288
 10
-0.95
 20
-13.6913
 30
-15.2416
 10
-0.95
 20
-14.4881
 30
-14.4214
 10
-0.95
 20
-15.2829
 30
-13.5994
 10
-0.95
 20
-16.0444
 30
-12.748
 10
-0.95
 20
-16.7724
 30
-11.867
 10
-0.95
 20
-18.2304
 30
-10.1095
 10
-0.95
 20
-19.5848
 30
-8.24784
 10
-0.95
 20
-20.8529
 30
-6.33173
 10
-0.95
 20
-22.1165
 30
-4.41706
 10
-0.95
 20
-23.2921
 30
-2.45836
 10
-0.95
 20
-24.3798
 30
-0.455639
 10
-0.95
 20
-25.4708
 30
1.5454
 10
-0.95
 20
-26.4747
 30
3.59
 10
-0.95
 20
-27.3916
 30
5.67815
 10
-0.95
 20
-28.3059
 30
7.76726
 10
-0.95
 20
-29.1321
 30
9.90162
 10
-0.95
 20
-29.8262
 30
12.1006
 10
-0.95
 20
-30.1751
 30
13.1995
 10
-0.95
 20
-30.4806
 30
14.3097
 10
-0.95
 20
-30.7428
 30
15.4312
 10
-0.95
 20
-31.0026
 30
16.5534
 10
-0.95
 20
-31.2132
 30
17.6892
 10
-0.95
 20
-31.3371
 30
18.83
 10
-0.95
 20
-31.4009
 30
19.4002
 10
-0.95
 20
-31.4376
 30
19.9729
 10
-0.95
 20
-31.4472
 30
20.5482
 10
-0.95
 20
-31.455
 30
21.1237
 10
-0.95
 20
-31.4306
 30
21.7055
 10
-0.95
 20
-31.3516
 30
22.2771
 10
-0.95
 20
-31.2727
 30
22.8462
 10
-0.95
 20
-31.1381
 30
23.4209
 10
-0.95
 20
-30.9037
 30
23.9444
 10
-0.95
 20
-30.7881
 30
24.2081
 10
-0.95
 20
-30.6404
 30
24.4554
 10
-0.95
 20
-30.4607
 30
24.6863
 10
-0.95
 20
-30.2798
 30
24.9172
 10
-0.95
 20
-30.065
 30
25.1112
 10
-0.95
 20
-29.8164
 30
25.2683
  0
SPLINE
  5
C4F
330
A02
100
AcDbEntity
  8
Compound
100
AcDbSpline
210
0
220
0
230
1
 70
8
 71
2
 72
6
 73
3
 74
0
 40
0.112451
 40
0.112451
 40
0.112451
 40
0.112657
 40
0.112657
 40
0.112657
 10
-0.95
 20
-5.50257
 30
-18.7543
 10
-0.95
 20
-5.58849
 30
-18.8114
 10
-0.95
 20
-5.67918
 30
-18.8607
  0
ARC
  5
C50
330
A02
100
AcDbEntity
  8
Compound
100
AcDbCircle
 10
-0.95
 20
-4.50666
 30
-20.2537
 40
1.8
100
AcDbArc
 50
180
 51
-90
  0
SPLINE
  5
C51
330
A02
100
AcDbEntity
  8
Compound
100
AcDbSpline
210
0
220
0
230
1
 70
8
 71
3
 72
59
 73
55
 74
0
 40
0.0624
 40
0.0624
 40
0.0624
 40
0.0624
 40
0.0633692
 40
0.0633692
 40
0.0633692
 40
0.0643385
 40
0.0643385
 40
0.0643385
 40
0.0662769
 40
0.0662769
 40
0.0662769
 40
0.0682154
 40
0.0682154
 40
0.0682154
 40
0.0701539
 40
0.0701539
 40
0.0701539
 40
0.0740308
 40
0.0740308
 40
0.0740308
 40
0.0779077
 40
0.0779077
 40
0.0779077
 40
0.0817847
 40
0.0817847
 40
0.0817847
 40
0.0856616
 40
0.0856616
 40
0.0856616
 40
0.0934154
 40
0.0934154
 40
0.0934154
 40
0.101169
 40
0.101169
 40
0.101169
 40
0.108923
 40
0.108923
 40
0.108923
 40
0.1128
 40
0.1128
 40
0.1128
 40
0.116677
 40
0.116677
 40
0.116677
 40
0.118615
 40
0.118615
 40
0.118615
 40
0.120554
 40
0.120554
 40
0.120554
 40
0.122492
 40
0.122492
 40
0.122492
 40
0.124431
 40
0.124431
 40
0.124431
 40
0.124431
 10
2.75
 20
-30.3427
 30
27.0274
 10
2.75
 20
-30.0489
 30
27.1646
 10
2.75
 20
-29.7454
 30
27.2667
 10
2.75
 20
-29.4322
 30
27.3336
 10
2.75
 20
-29.1175
 30
27.4002
 10
2.75
 20
-28.799
 30
27.4344
 10
2.75
 20
-28.4766
 30
27.436
 10
2.75
 20
-27.8371
 30
27.44
 10
2.75
 20
-27.2135
 30
27.3257
 10
2.75
 20
-26.6003
 30
27.1337
 10
2.75
 20
-25.9872
 30
26.9416
 10
2.75
 20
-25.4051
 30
26.6783
 10
2.75
 20
-24.843
 30
26.3721
 10
2.75
 20
-24.2813
 30
26.0627
 10
2.75
 20
-23.7426
 30
25.7211
 10
2.75
 20
-23.227
 30
25.3471
 10
2.75
 20
-22.1949
 30
24.6054
 10
2.75
 20
-21.2381
 30
23.7675
 10
2.75
 20
-20.3231
 30
22.8771
 10
2.75
 20
-19.4081
 30
21.9866
 10
2.75
 20
-18.5445
 30
21.0493
 10
2.75
 20
-17.7156
 30
20.0803
 10
2.75
 20
-16.8871
 30
19.1088
 10
2.75
 20
-16.0937
 30
18.1137
 10
2.75
 20
-15.3356
 30
17.0949
 10
2.75
 20
-14.5778
 30
16.078
 10
2.75
 20
-13.8495
 30
15.0438
 10
2.75
 20
-13.1507
 30
13.9922
 10
2.75
 20
-11.7534
 30
11.889
 10
2.75
 20
-10.4569
 30
9.72634
 10
2.75
 20
-9.26124
 30
7.50439
 10
2.75
 20
-8.06104
 30
5.2851
 10
2.75
 20
-6.96367
 30
3.0053
 10
2.75
 20
-5.96913
 30
0.664973
 10
2.75
 20
-4.97743
 30
-1.68012
 10
2.75
 20
-4.10227
 30
-4.06628
 10
2.75
 20
-3.41145
 30
-6.49721
 10
2.75
 20
-3.06653
 30
-7.7136
 10
2.75
 20
-2.76806
 30
-8.94284
 10
2.75
 20
-2.5406
 30
-10.1917
 10
2.75
 20
-2.31446
 30
-11.4373
 10
2.75
 20
-2.15392
 30
-12.7189
 10
2.75
 20
-2.13167
 30
-13.9981
 10
2.75
 20
-2.11781
 30
-14.6365
 10
2.75
 20
-2.14893
 30
-15.2735
 10
2.75
 20
-2.22504
 30
-15.9092
 10
2.75
 20
-2.30471
 30
-16.546
 10
2.75
 20
-2.44096
 30
-17.1827
 10
2.75
 20
-2.66012
 30
-17.7819
 10
2.75
 20
-2.87773
 30
-18.3803
 10
2.75
 20
-3.19185
 30
-18.9644
 10
2.75
 20
-3.60835
 30
-19.4522
 10
2.75
 20
-4.02651
 30
-19.9453
 10
2.75
 20
-4.55351
 30
-20.3457
 10
2.75
 20
-5.14815
 30
-20.6023
  0
ARC
  5
C52
330
A02
100
AcDbEntity
  8
Compound
100
AcDbCircle
 10
0.95
 20
-30.3427
 30
27.0274
 40
1.8
100
AcDbArc
 50
-1.13086e-13
 51
90
  0
SPLINE
  5
C53
330
A02
100
AcDbEntity
  8
Compound
100
AcDbSpline
210
0
220
0
230
1
 70
8
 71
3
 72
59
 73
55
 74
0
 40
0
 40
0
 40
0
 40
0
 40
0.00087633
 40
0.00087633
 40
0.00087633
 40
0.00175266
 40
0.00175266
 40
0.00175266
 40
0.00350532
 40
0.00350532
 40
0.00350532
 40
0.00525798
 40
0.00525798
 40
0.00525798
 40
0.00701064
 40
0.00701064
 40
0.00701064
 40
0.010516
 40
0.010516
 40
0.010516
 40
0.0140213
 40
0.0140213
 40
0.0140213
 40
0.0210319
 40
0.0210319
 40
0.0210319
 40
0.0280426
 40
0.0280426
 40
0.0280426
 40
0.0350532
 40
0.0350532
 40
0.0350532
 40
0.0420639
 40
0.0420639
 40
0.0420639
 40
0.0455692
 40
0.0455692
 40
0.0455692
 40
0.0490745
 40
0.0490745
 40
0.0490745
 40
0.0508272
 40
0.0508272
 40
0.0508272
 40
0.0525798
 40
0.0525798
 40
0.0525798
 40
0.0543325
 40
0.0543325
 40
0.0543325
 40
0.0552088
 40
0.0552088
 40
0.0552088
 40
0.0560851
 40
0.0560851
 40
0.0560851
 40
0.0560851
 10
0.95
 20
-5.67918
 30
-18.8607
 10
0.95
 20
-5.4208
 30
-18.7208
 10
0.95
 20
-5.19273
 30
-18.5314
 10
0.95
 20
-5.00001
 30
-18.3099
 10
0.95
 20
-4.80921
 30
-18.0866
 10
0.95
 20
-4.65076
 30
-17.8422
 10
0.95
 20
-4.52467
 30
-17.5767
 10
0.95
 20
-4.27225
 30
-17.0528
 10
0.95
 20
-4.13003
 30
-16.4849
 10
0.95
 20
-4.04183
 30
-15.9086
 10
0.95
 20
-3.95509
 30
-15.3343
 10
0.95
 20
-3.92615
 30
-14.7584
 10
0.95
 20
-3.92968
 30
-14.1816
 10
0.95
 20
-3.93508
 30
-13.6039
 10
0.95
 20
-3.96873
 30
-13.0265
 10
0.95
 20
-4.03063
 30
-12.4494
 10
0.95
 20
-4.1507
 30
-11.2972
 10
0.95
 20
-4.35743
 30
-10.169
 10
0.95
 20
-4.6123
 30
-9.05429
 10
0.95
 20
-4.8696
 30
-7.94023
 10
0.95
 20
-5.16983
 30
-6.8381
 10
0.95
 20
-5.51301
 30
-5.74791
 10
0.95
 20
-6.19458
 30
-3.56847
 10
0.95
 20
-7.01989
 30
-1.41929
 10
0.95
 20
-7.93789
 30
0.687045
 10
0.95
 20
-8.85709
 30
2.7889
 10
0.95
 20
-9.8611
 30
4.84087
 10
0.95
 20
-10.9499
 30
6.84295
 10
0.95
 20
-12.0355
 30
8.84693
 10
0.95
 20
-13.205
 30
10.8016
 10
0.95
 20
-14.4584
 30
12.7068
 10
0.95
 20
-15.714
 30
14.6105
 10
0.95
 20
-17.0554
 30
16.4648
 10
0.95
 20
-18.523
 30
18.2435
 10
0.95
 20
-19.2553
 30
19.1339
 10
0.95
 20
-20.0206
 30
19.9942
 10
0.95
 20
-20.8191
 30
20.8244
 10
0.95
 20
-21.6193
 30
21.6528
 10
0.95
 20
-22.4578
 30
22.4473
 10
0.95
 20
-23.3476
 30
23.1719
 10
0.95
 20
-23.7914
 30
23.5356
 10
0.95
 20
-24.2521
 30
23.878
 10
0.95
 20
-24.7296
 30
24.199
 10
0.95
 20
-25.2082
 30
24.5185
 10
0.95
 20
-25.7096
 30
24.8146
 10
0.95
 20
-26.2323
 30
25.0593
 10
0.95
 20
-26.7527
 30
25.3026
 10
0.95
 20
-27.3081
 30
25.5023
 10
0.95
 20
-27.8749
 30
25.5904
 10
0.95
 20
-28.1591
 30
25.6369
 10
0.95
 20
-28.4469
 30
25.6475
 10
0.95
 20
-28.7385
 30
25.6223
 10
0.95
 20
-29.0306
 30
25.5961
 10
0.95
 20
-29.3102
 30
25.5214
 10
0.95
 20
-29.5773
 30
25.3983
  0
SPLINE
  5
C54
330
A02
100
AcDbEntity
  8
Compound
100
AcDbSpline
210
0
220
0
230
1
 70
8
 71
2
 72
6
 73
3
 74
0
 40
0.112451
 40
0.112451
 40
0.112451
 40
0.112657
 40
0.112657
 40
0.112657
 10
0.95
 20
-5.86451
 30
-18.951
 10
0.95
 20
-5.76988
 30
-18.91
 10
0.95
 20
-5.67918
 30
-18.8607
  0
ARC
  5
C55
330
A02
100
AcDbEntity
  8
Compound
100
AcDbCircle
 10
0.95
 20
-5.14815
 30
-20.6023
 40
1.8
100
AcDbArc
 50
-90
 51
0
  0
SPLINE
  5
C56
330
A02
100
AcDbEntity
  8
Compound
100
AcDbSpline
210
0
220
0
230
1
 70
8
 71
3
 72
59
 73
55
 74
0
 40
0
 40
0
 40
0
 40
0
 40
0.00087633
 40
0.00087633
 40
0.00087633
 40
0.00175266
 40
0.00175266
 40
0.00175266
 40
0.00350532
 40
0.00350532
 40
0.00350532
 40
0.00525798
 40
0.00525798
 40
0.00525798
 40
0.00701064
 40
0.00701064
 40
0.00701064
 40
0.010516
 40
0.010516
 40
0.010516
 40
0.0140213
 40
0.0140213
 40
0.0140213
 40
0.0210319
 40
0.0210319
 40
0.0210319
 40
0.0280426
 40
0.0280426
 40
0.0280426
 40
0.0350532
 40
0.0350532
 40
0.0350532
 40
0.0420639
 40
0.0420639
 40
0.0420639
 40
0.0455692
 40
0.0455692
 40
0.0455692
 40
0.0490745
 40
0.0490745
 40
0.0490745
 40
0.0508272
 40
0.0508272
 40
0.0508272
 40
0.0525798
 40
0.0525798
 40
0.0525798
 40
0.0543325
 40
0.0543325
 40
0.0543325
 40
0.0552088
 40
0.0552088
 40
0.0552088
 40
0.0560851
 40
0.0560851
 40
0.0560851
 40
0.0560851
 10
0.95
 20
-5.67918
 30
-18.8607
 10
0.95
 20
-5.4208
 30
-18.7208
 10
0.95
 20
-5.19273
 30
-18.5314
 10
0.95
 20
-5.00001
 30
-18.3099
 10
0.95
 20
-4.80921
 30
-18.0866
 10
0.95
 20
-4.65076
 30
-17.8422
 10
0.95
 20
-4.52467
 30
-17.5767
 10
0.95
 20
-4.27225
 30
-17.0528
 10
0.95
 20
-4.13003
 30
-16.4849
 10
0.95
 20
-4.04183
 30
-15.9086
 10
0.95
 20
-3.95509
 30
-15.3343
 10
0.95
 20
-3.92615
 30
-14.7584
 10
0.95
 20
-3.92968
 30
-14.1816
 10
0.95
 20
-3.93508
 30
-13.6039
 10
0.95
 20
-3.96873
 30
-13.0265
 10
0.95
 20
-4.03063
 30
-12.4494
 10
0.95
 20
-4.1507
 30
-11.2972
 10
0.95
 20
-4.35743
 30
-10.169
 10
0.95
 20
-4.6123
 30
-9.05429
 10
0.95
 20
-4.8696
 30
-7.94023
 10
0.95
 20
-5.16983
 30
-6.8381
 10
0.95
 20
-5.51301
 30
-5.74791
 10
0.95
 20
-6.19458
 30
-3.56847
 10
0.95
 20
-7.01989
 30
-1.41929
 10
0.95
 20
-7.93789
 30
0.687045
 10
0.95
 20
-8.85709
 30
2.7889
 10
0.95
 20
-9.8611
 30
4.84087
 10
0.95
 20
-10.9499
 30
6.84295
 10
0.95
 20
-12.0355
 30
8.84693
 10
0.95
 20
-13.205
 30
10.8016
 10
0.95
 20
-14.4584
 30
12.7068
 10
0.95
 20
-15.714
 30
14.6105
 10
0.95
 20
-17.0554
 30
16.4648
 10
0.95
 20
-18.523
 30
18.2435
 10
0.95
 20
-19.2553
 30
19.1339
 10
0.95
 20
-20.0206
 30
19.9942
 10
0.95
 20
-20.8191
 30
20.8244
 10
0.95
 20
-21.6193
 30
21.6528
 10
0.95
 20
-22.4578
 30
22.4473
 10
0.95
 20
-23.3476
 30
23.1719
 10
0.95
 20
-23.7914
 30
23.5356
 10
0.95
 20
-24.2521
 30
23.878
 10
0.95
 20
-24.7296
 30
24.199
 10
0.95
 20
-25.2082
 30
24.5185
 10
0.95
 20
-25.7096
 30
24.8146
 10
0.95
 20
-26.2323
 30
25.0593
 10
0.95
 20
-26.7527
 30
25.3026
 10
0.95
 20
-27.3081
 30
25.5023
 10
0.95
 20
-27.8749
 30
25.5904
 10
0.95
 20
-28.1591
 30
25.6369
 10
0.95
 20
-28.4469
 30
25.6475
 10
0.95
 20
-28.7385
 30
25.6223
 10
0.95
 20
-29.0306
 30
25.5961
 10
0.95
 20
-29.3102
 30
25.5214
 10
0.95
 20
-29.5773
 30
25.3983
  0
SPLINE
  5
C57
330
A02
100
AcDbEntity
  8
Compound
100
AcDbSpline
210
0
220
0
230
1
 70
8
 71
1
 72
4
 73
2
 74
0
 40
0.0560851
 40
0.0560851
 40
0.0562207
 40
0.0562207
 10
0.95
 20
-29.5773
 30
25.3983
 10
0.95
 20
-29.6987
 30
25.3368
  0
LINE
  5
C58
330
A02
100
AcDbEntity
  8
Compound
100
AcDbLine
 10
0.95
 20
-29.6987
 30
25.3368
 11
-0.95
 21
-29.6987
 31
25.3368
  0
SPLINE
  5
C59
330
A02
100
AcDbEntity
  8
Compound
100
AcDbSpline
210
0
220
0
230
1
 70
8
 71
3
 72
59
 73
55
 74
0
 40
0.0562207
 40
0.0562207
 40
0.0562207
 40
0.0562207
 40
0.0570993
 40
0.0570993
 40
0.0570993
 40
0.0579779
 40
0.0579779
 40
0.0579779
 40
0.0597351
 40
0.0597351
 40
0.0597351
 40
0.0614923
 40
0.0614923
 40
0.0614923
 40
0.0632495
 40
0.0632495
 40
0.0632495
 40
0.0667639
 40
0.0667639
 40
0.0667639
 40
0.0702784
 40
0.0702784
 40
0.0702784
 40
0.0773072
 40
0.0773072
 40
0.0773072
 40
0.0843361
 40
0.0843361
 40
0.0843361
 40
0.0913649
 40
0.0913649
 40
0.0913649
 40
0.0983938
 40
0.0983938
 40
0.0983938
 40
0.101908
 40
0.101908
 40
0.101908
 40
0.105423
 40
0.105423
 40
0.105423
 40
0.10718
 40
0.10718
 40
0.10718
 40
0.108937
 40
0.108937
 40
0.108937
 40
0.110694
 40
0.110694
 40
0.110694
 40
0.111573
 40
0.111573
 40
0.111573
 40
0.112451
 40
0.112451
 40
0.112451
 40
0.112451
 10
-0.95
 20
-29.6987
 30
25.3368
 10
-0.95
 20
-29.4392
 30
25.476
 10
-0.95
 20
-29.1637
 30
25.5658
 10
-0.95
 20
-28.8722
 30
25.6063
 10
-0.95
 20
-28.5814
 30
25.6457
 10
-0.95
 20
-28.2909
 30
25.6462
 10
-0.95
 20
-28.0005
 30
25.6079
 10
-0.95
 20
-27.4188
 30
25.5345
 10
-0.95
 20
-26.8706
 30
25.3469
 10
-0.95
 20
-26.3414
 30
25.1095
 10
-0.95
 20
-25.8106
 30
24.8694
 10
-0.95
 20
-25.3087
 30
24.5792
 10
-0.95
 20
-24.8284
 30
24.2644
 10
-0.95
 20
-24.3485
 30
23.9473
 10
-0.95
 20
-23.8847
 30
23.6073
 10
-0.95
 20
-23.4371
 30
23.2444
 10
-0.95
 20
-22.5382
 30
22.5194
 10
-0.95
 20
-21.6939
 30
21.7242
 10
-0.95
 20
-20.897
 30
20.9048
 10
-0.95
 20
-20.1009
 30
20.0819
 10
-0.95
 20
-19.3399
 30
19.2314
 10
-0.95
 20
-18.614
 30
18.3533
 10
-0.95
 20
-17.158
 30
16.6003
 10
-0.95
 20
-15.8163
 30
14.7575
 10
-0.95
 20
-14.5542
 30
12.8519
 10
-0.95
 20
-13.2927
 30
10.9467
 10
-0.95
 20
-12.1089
 30
8.9701
 10
-0.95
 20
-11.0165
 30
6.96546
 10
-0.95
 20
-9.92189
 30
4.95953
 10
-0.95
 20
-8.91619
 30
2.91361
 10
-0.95
 20
-7.99943
 30
0.827697
 10
-0.95
 20
-7.08404
 30
-1.25883
 10
-0.95
 20
-6.25952
 30
-3.38621
 10
-0.95
 20
-5.56788
 30
-5.57334
 10
-0.95
 20
-5.22206
 30
-6.6669
 10
-0.95
 20
-4.90966
 30
-7.77799
 10
-0.95
 20
-4.64916
 30
-8.89471
 10
-0.95
 20
-4.38866
 30
-10.0114
 10
-0.95
 20
-4.17733
 30
-11.1364
 10
-0.95
 20
-4.04946
 30
-12.2754
 10
-0.95
 20
-3.98371
 30
-12.8446
 10
-0.95
 20
-3.94455
 30
-13.4183
 10
-0.95
 20
-3.93198
 30
-13.9964
 10
-0.95
 20
-3.92123
 30
-14.5748
 10
-0.95
 20
-3.94227
 30
-15.154
 10
-0.95
 20
-4.01603
 30
-15.7244
 10
-0.95
 20
-4.08994
 30
-16.292
 10
-0.95
 20
-4.21623
 30
-16.8655
 10
-0.95
 20
-4.44493
 30
-17.4017
 10
-0.95
 20
-4.55866
 30
-17.667
 10
-0.95
 20
-4.69997
 30
-17.9243
 10
-0.95
 20
-4.87635
 30
-18.1575
 10
-0.95
 20
-5.05016
 30
-18.3909
 10
-0.95
 20
-5.2589
 30
-18.5898
 10
-0.95
 20
-5.50257
 30
-18.7543
  0
SPLINE
  5
C5A
330
A02
100
AcDbEntity
  8
Compound
100
AcDbSpline
210
0
220
0
230
1
 70
8
 71
2
 72
6
 73
3
 74
0
 40
0.112451
 40
0.112451
 40
0.112451
 40
0.112657
 40
0.112657
 40
0.112657
 10
-0.95
 20
-5.50257
 30
-18.7543
 10
-0.95
 20
-5.58849
 30
-18.8114
 10
-0.95
 20
-5.67918
 30
-18.8607
  0
LINE
  5
C5B
330
A02
100
AcDbEntity
  8
Compound
100
AcDbLine
 10
0.95
 20
-5.67918
 30
-18.8607
 11
-0.95
 21
-5.67918
 31
-18.8607
  0
ARC
  5
C5C
330
A02
100
AcDbEntity
  8
Compound
100
AcDbCircle
 10
0
 20
-1.3
 30
33.25
 40
5
100
AcDbArc
 50
180
 51
180
  0
LINE
  5
C5D
330
A02
100
AcDbEntity
  8
Compound
100
AcDbLine
 10
0
 20
-1.3
 30
39.5
 11
0
 21
2.5
 31
39.5
  0
ARC
  5
C5E
330
A02
100
AcDbEntity
  8
Compound
100
AcDbCircle
 10
0
 20
2.5
 30
33.25
 40
3
100
AcDbArc
 50
180
 51
180
  0
LINE
  5
C5F
330
A02
100
AcDbEntity
  8
Compound
100
AcDbLine
 10
-3
 20
-1.3
 30
27.7671
 11
-3
 21
2.5
 31
27.7671
  0
ARC
  5
C60
330
A02
100
AcDbEntity
  8
Compound
100
AcDbCircle
 10
0
 20
-1.3
 30
33.25
 40
3
100
AcDbArc
 50
180
 51
180
  0
LINE
  5
C61
330
A02
100
AcDbEntity
  8
Compound
100
AcDbLine
 10
3
 20
-1.3
 30
9.4
 11
3
 21
-1.3
 31
-36.5
  0
LINE
  5
C62
330
A02
100
AcDbEntity
  8
Compound
100
AcDbLine
 10
3
 20
-1.3
 30
9.4
 11
2.75
 21
-1.3
 31
9.4
  0
LINE
  5
C63
330
A02
100
AcDbEntity
  8
Compound
100
AcDbLine
 10
2.75
 20
-1.3
 30
-30.6957
 11
2.75
 21
-1.3
 31
9.4
  0
SPLINE
  5
C64
330
A02
100
AcDbEntity
  8
Compound
100
AcDbSpline
210
0
220
0
230
1
 70
8
 71
3
 72
14
 73
10
 74
0
 40
3.49645e-18
 40
3.49645e-18
 40
3.49645e-18
 40
3.49645e-18
 40
0.000703866
 40
0.000703866
 40
0.000703866
 40
0.00140773
 40
0.00140773
 40
0.00140773
 40
0.00281547
 40
0.00281547
 40
0.00281547
 40
0.00281547
 10
2.75
 20
-1.3
 30
-30.6957
 10
2.74968
 20
-1.3
 30
-30.9343
 10
2.70417
 20
-1.3
 30
-31.1642
 10
2.61345
 20
-1.3
 30
-31.3856
 10
2.52417
 20
-1.3
 30
-31.6028
 10
2.3913
 20
-1.3
 30
-31.8026
 10
2.22422
 20
-1.3
 30
-31.9705
 10
1.89111
 20
-1.3
 30
-32.3061
 10
1.42712
 20
-1.3
 30
-32.5011
 10
0.95
 20
-1.3
 30
-32.5
  0
LINE
  5
C65
330
A02
100
AcDbEntity
  8
Compound
100
AcDbLine
 10
0.95
 20
-1.3
 30
-32.5
 11
-0.95
 21
-1.3
 31
-32.5
  0
SPLINE
  5
C66
330
A02
100
AcDbEntity
  8
Compound
100
AcDbSpline
210
0
220
0
230
1
 70
8
 71
3
 72
14
 73
10
 74
0
 40
0
 40
0
 40
0
 40
0
 40
0.000703863
 40
0.000703863
 40
0.000703863
 40
0.00140773
 40
0.00140773
 40
0.00140773
 40
0.00281545
 40
0.00281545
 40
0.00281545
 40
0.00281545
 10
-0.95
 20
-1.3
 30
-32.5
 10
-1.18856
 20
-1.3
 30
-32.4996
 10
-1.41843
 20
-1.3
 30
-32.4538
 10
-1.6396
 20
-1.3
 30
-32.3625
 10
-1.85655
 20
-1.3
 30
-32.2727
 10
-2.05604
 20
-1.3
 30
-32.139
 10
-2.2233
 20
-1.3
 30
-31.9714
 10
-2.55775
 20
-1.3
 30
-31.6372
 10
-2.75119
 20
-1.3
 30
-31.1727
 10
-2.75
 20
-1.3
 30
-30.6957
  0
LINE
  5
C67
330
A02
100
AcDbEntity
  8
Compound
100
AcDbLine
 10
-2.75
 20
-1.3
 30
-30.6957
 11
-2.75
 21
-1.3
 31
9.4
  0
LINE
  5
C68
330
A02
100
AcDbEntity
  8
Compound
100
AcDbLine
 10
-2.75
 20
-1.3
 30
9.4
 11
-3
 21
-1.3
 31
9.4
  0
LINE
  5
C69
330
A02
100
AcDbEntity
  8
Compound
100
AcDbLine
 10
-3
 20
-1.3
 30
-36.5
 11
-3
 21
-1.3
 31
9.4
  0
ARC
  5
C6A
330
A02
100
AcDbEntity
  8
Compound
100
AcDbCircle
 10
0
 20
-1.3
 30
-36.5
 40
3
100
AcDbArc
 50
180
 51
0
  0
LINE
  5
C6B
330
A02
100
AcDbEntity
  8
Compound
100
AcDbLine
 10
-3
 20
-1.3
 30
12.6
 11
-3
 21
-1.3
 31
27.7671
  0
LINE
  5
C6C
330
A02
100
AcDbEntity
  8
Compound
100
AcDbLine
 10
-3
 20
-1.3
 30
12.6
 11
-2.75
 21
-1.3
 31
12.6
  0
LINE
  5
C6D
330
A02
100
AcDbEntity
  8
Compound
100
AcDbLine
 10
-2.75
 20
-1.3
 30
12.6
 11
-2.75
 21
-1.3
 31
16.5358
  0
SPLINE
  5
C6E
330
A02
100
AcDbEntity
  8
Compound
100
AcDbSpline
210
0
220
0
230
1
 70
8
 71
3
 72
17
 73
13
 74
0
 40
0
 40
0
 40
0
 40
0
 40
0.000734963
 40
0.000734963
 40
0.000734963
 40
0.00146993
 40
0.00146993
 40
0.00146993
 40
0.00220489
 40
0.00220489
 40
0.00220489
 40
0.00293985
 40
0.00293985
 40
0.00293985
 40
0.00293985
 10
-2.75
 20
-1.3
 30
16.5358
 10
-2.74991
 20
-1.3
 30
16.7849
 10
-2.70715
 20
-1.3
 30
17.0261
 10
-2.62172
 20
-1.3
 30
17.2594
 10
-2.53652
 20
-1.3
 30
17.4926
 10
-2.41215
 20
-1.3
 30
17.7033
 10
-2.24861
 20
-1.3
 30
17.8917
 10
-2.08651
 20
-1.3
 30
18.0769
 10
-1.89012
 20
-1.3
 30
18.2291
 10
-1.66584
 20
-1.3
 30
18.3365
 10
-1.44467
 20
-1.3
 30
18.4423
 10
-1.20066
 20
-1.3
 30
18.4999
 10
-0.95
 20
-1.3
 30
18.5
  0
LINE
  5
C6F
330
A02
100
AcDbEntity
  8
Compound
100
AcDbLine
 10
0.95
 20
-1.3
 30
18.5
 11
-0.95
 21
-1.3
 31
18.5
  0
SPLINE
  5
C70
330
A02
100
AcDbEntity
  8
Compound
100
AcDbSpline
210
0
220
0
230
1
 70
8
 71
3
 72
14
 73
10
 74
0
 40
0
 40
0
 40
0
 40
0
 40
0.000734912
 40
0.000734912
 40
0.000734912
 40
0.00146982
 40
0.00146982
 40
0.00146982
 40
0.00293965
 40
0.00293965
 40
0.00293965
 40
0.00293965
 10
0.95
 20
-1.3
 30
18.5
 10
1.1973
 20
-1.3
 30
18.5003
 10
1.4407
 20
-1.3
 30
18.4434
 10
1.66465
 20
-1.3
 30
18.337
 10
1.88653
 20
-1.3
 30
18.2314
 10
2.08603
 20
-1.3
 30
18.077
 10
2.24789
 20
-1.3
 30
17.8925
 10
2.57415
 20
-1.3
 30
17.521
 10
2.75045
 20
-1.3
 30
17.0294
 10
2.75
 20
-1.3
 30
16.5358
  0
LINE
  5
C71
330
A02
100
AcDbEntity
  8
Compound
100
AcDbLine
 10
2.75
 20
-1.3
 30
12.6
 11
2.75
 21
-1.3
 31
16.5358
  0
LINE
  5
C72
330
A02
100
AcDbEntity
  8
Compound
100
AcDbLine
 10
2.75
 20
-1.3
 30
12.6
 11
3
 21
-1.3
 31
12.6
  0
LINE
  5
C73
330
A02
100
AcDbEntity
  8
Compound
100
AcDbLine
 10
3
 20
-1.3
 30
27.7671
 11
3
 21
-1.3
 31
12.6
  0
ARC
  5
C74
330
A02
100
AcDbEntity
  8
Compound
100
AcDbCircle
 10
0
 20
-1.3
 30
33.25
 40
5
100
AcDbArc
 50
0
 51
0
  0
LINE
  5
C75
330
A02
100
AcDbEntity
  8
Compound
100
AcDbLine
 10
5
 20
-1.3
 30
31.7671
 11
5
 21
-1.3
 31
37
  0
ARC
  5
C76
330
A02
100
AcDbEntity
  8
Compound
100
AcDbCircle
 10
1
 20
-1.3
 30
31.7671
 40
4
100
AcDbArc
 50
0
 51
0
  0
LINE
  5
C77
330
A02
100
AcDbEntity
  8
Compound
100
AcDbLine
 10
1
 20
-1.3
 30
27.7671
 11
-1
 21
-1.3
 31
27.7671
  0
ARC
  5
C78
330
A02
100
AcDbEntity
  8
Compound
100
AcDbCircle
 10
-1
 20
-1.3
 30
31.7671
 40
4.44089e-16
100
AcDbArc
 50
180
 51
0
  0
LINE
  5
C79
330
A02
100
AcDbEntity
  8
Compound
100
AcDbLine
 10
-5
 20
-1.3
 30
31.7671
 11
-5
 21
-1.3
 31
37
  0
ARC
  5
C7A
330
A02
100
AcDbEntity
  8
Compound
100
AcDbCircle
 10
0
 20
-1.3
 30
33.25
 40
3
100
AcDbArc
 50
180
 51
180
  0
ARC
  5
C7B
330
A02
100
AcDbEntity
  8
Compound
100
AcDbCircle
 10
0
 20
2.5
 30
-36.5
 40
3
100
AcDbArc
 50
180
 51
0
  0
LINE
  5
C7C
330
A02
100
AcDbEntity
  8
Compound
100
AcDbLine
 10
3
 20
-1.3
 30
-36.5
 11
3
 21
2.5
 31
-36.5
  0
ARC
  5
C7D
330
A02
100
AcDbEntity
  8
Compound
100
AcDbCircle
 10
0
 20
-1.3
 30
-36.5
 40
3
100
AcDbArc
 50
180
 51
0
  0
LINE
  5
C7E
330
A02
100
AcDbEntity
  8
Compound
100
AcDbLine
 10
-3
 20
-1.3
 30
-36.5
 11
-3
 21
2.5
 31
-36.5
  0
ARC
  5
C7F
330
A02
100
AcDbEntity
  8
Compound
100
AcDbCircle
 10
3
 20
-2.5
 30
11
 40
1.2
100
AcDbArc
 50
90
 51
90
  0
LINE
  5
C80
330
A02
100
AcDbEntity
  8
Compound
100
AcDbLine
 10
3
 20
-1.3
 30
9.4
 11
3
 21
-1.3
 31
-36.5
  0
LINE
  5
C81
330
A02
100
AcDbEntity
  8
Compound
100
AcDbLine
 10
3
 20
-1.3
 30
-36.5
 11
3
 21
2.5
 31
-36.5
  0
LINE
  5
C82
330
A02
100
AcDbEntity
  8
Compound
100
AcDbLine
 10
3
 20
2.5
 30
27.7671
 11
3
 21
2.5
 31
-36.5
  0
LINE
  5
C83
330
A02
100
AcDbEntity
  8
Compound
100
AcDbLine
 10
3
 20
-1.3
 30
27.7671
 11
3
 21
2.5
 31
27.7671
  0
LINE
  5
C84
330
A02
100
AcDbEntity
  8
Compound
100
AcDbLine
 10
3
 20
-1.3
 30
27.7671
 11
3
 21
-1.3
 31
12.6
  0
LINE
  5
C85
330
A02
100
AcDbEntity
  8
Compound
100
AcDbLine
 10
0
 20
-1.3
 30
39.5
 11
0
 21
2.5
 31
39.5
  0
ARC
  5
C86
330
A02
100
AcDbEntity
  8
Compound
100
AcDbCircle
 10
0
 20
-1.3
 30
33.25
 40
0
100
AcDbArc
 50
0
 51
0
  0
ARC
  5
C87
330
A02
100
AcDbEntity
  8
Compound
100
AcDbCircle
 10
0
 20
-1.3
 30
33.25
 40
5
100
AcDbArc
 50
0
 51
0
  0
LINE
  5
C88
330
A02
100
AcDbEntity
  8
Compound
100
AcDbLine
 10
3
 20
-1.3
 30
27.7671
 11
3
 21
2.5
 31
27.7671
  0
ARC
  5
C89
330
A02
100
AcDbEntity
  8
Compound
100
AcDbCircle
 10
0
 20
2.5
 30
33.25
 40
0
100
AcDbArc
 50
0
 51
0
  0
ARC
  5
C8A
330
A02
100
AcDbEntity
  8
Compound
100
AcDbCircle
 10
-3
 20
-2.5
 30
11
 40
1.2
100
AcDbArc
 50
90
 51
90
  0
LINE
  5
C8B
330
A02
100
AcDbEntity
  8
Compound
100
AcDbLine
 10
-3
 20
-1.3
 30
12.6
 11
-3
 21
-1.3
 31
27.7671
  0
LINE
  5
C8C
330
A02
100
AcDbEntity
  8
Compound
100
AcDbLine
 10
-3
 20
-1.3
 30
27.7671
 11
-3
 21
2.5
 31
27.7671
  0
LINE
  5
C8D
330
A02
100
AcDbEntity
  8
Compound
100
AcDbLine
 10
-3
 20
2.5
 30
-36.5
 11
-3
 21
2.5
 31
27.7671
  0
LINE
  5
C8E
330
A02
100
AcDbEntity
  8
Compound
100
AcDbLine
 10
-3
 20
-1.3
 30
-36.5
 11
-3
 21
2.5
 31
-36.5
  0
LINE
  5
C8F
330
A02
100
AcDbEntity
  8
Compound
100
AcDbLine
 10
-3
 20
-1.3
 30
-36.5
 11
-3
 21
-1.3
 31
9.4
  0
ARC
  5
C90
330
A02
100
AcDbEntity
  8
Compound
100
AcDbCircle
 10
0
 20
2.5
 30
-36.5
 40
3
100
AcDbArc
 50
180
 51
0
  0
LINE
  5
C91
330
A02
100
AcDbEntity
  8
Compound
100
AcDbLine
 10
-3
 20
2.5
 30
-36.5
 11
-3
 21
2.5
 31
27.7671
  0
ARC
  5
C92
330
A02
100
AcDbEntity
  8
Compound
100
AcDbCircle
 10
0
 20
2.5
 30
33.25
 40
3
100
AcDbArc
 50
180
 51
180
  0
ARC
  5
C93
330
A02
100
AcDbEntity
  8
Compound
100
AcDbCircle
 10
0
 20
2.5
 30
33.25
 40
0
100
AcDbArc
 50
0
 51
0
  0
LINE
  5
C94
330
A02
100
AcDbEntity
  8
Compound
100
AcDbLine
 10
3
 20
2.5
 30
27.7671
 11
3
 21
2.5
 31
-36.5
  0
LINE
  5
C95
330
A02
100
AcDbEntity
  8
Compound
100
AcDbLine
 10
8.88178e-16
 20
-1.3
 30
39.5
 11
-5
 21
-1.3
 31
39.5
  0
ARC
  5
C96
330
A02
100
AcDbEntity
  8
Compound
100
AcDbCircle
 10
0
 20
-1.3
 30
33.25
 40
5
100
AcDbArc
 50
180
 51
180
  0
LINE
  5
C97
330
A02
100
AcDbEntity
  8
Compound
100
AcDbLine
 10
-5
 20
-1.3
 30
39.5
 11
-5
 21
-1.3
 31
37
  0
LINE
  5
C98
330
A02
100
AcDbEntity
  8
Compound
100
AcDbLine
 10
1
 20
-3.55224
 30
27.7671
 11
-1
 21
-3.55224
 31
27.7671
  0
LINE
  5
C99
330
A02
100
AcDbEntity
  8
Compound
100
AcDbLine
 10
-1
 20
-3.55224
 30
27.7671
 11
-1
 21
-1.3
 31
27.7671
  0
LINE
  5
C9A
330
A02
100
AcDbEntity
  8
Compound
100
AcDbLine
 10
1
 20
-1.3
 30
27.7671
 11
-1
 21
-1.3
 31
27.7671
  0
LINE
  5
C9B
330
A02
100
AcDbEntity
  8
Compound
100
AcDbLine
 10
1
 20
-1.3
 30
27.7671
 11
1
 21
-3.55224
 31
27.7671
  0
LINE
  5
C9C
330
A02
100
AcDbEntity
  8
Compound
100
AcDbLine
 10
5
 20
-1.3
 30
39.5
 11
5
 21
-1.3
 31
37
  0
ARC
  5
C9D
330
A02
100
AcDbEntity
  8
Compound
100
AcDbCircle
 10
0
 20
-1.3
 30
33.25
 40
0
100
AcDbArc
 50
0
 51
0
  0
LINE
  5
C9E
330
A02
100
AcDbEntity
  8
Compound
100
AcDbLine
 10
5
 20
-1.3
 30
39.5
 11
8.88178e-16
 21
-1.3
 31
39.5
  0
LINE
  5
C9F
330
A02
100
AcDbEntity
  8
Compound
100
AcDbLine
 10
8.88178e-16
 20
-1.3
 30
39.5
 11
-5
 21
-1.3
 31
39.5
  0
LINE
  5
CA0
330
A02
100
AcDbEntity
  8
Compound
100
AcDbLine
 10
5
 20
-1.3
 30
39.5
 11
8.88178e-16
 21
-1.3
 31
39.5
  0
ARC
  5
CA1
330
A02
100
AcDbEntity
  8
Compound
100
AcDbCircle
 10
5
 20
18.1962
 30
39.5
 40
18.1962
100
AcDbArc
 50
-90
 51
-90
  0
LINE
  5
CA2
330
A02
100
AcDbEntity
  8
Compound
100
AcDbLine
 10
5
 20
0
 30
46.5
 11
-5
 21
0
 31
46.5
  0
ARC
  5
CA3
330
A02
100
AcDbEntity
  8
Compound
100
AcDbCircle
 10
-5
 20
18.1962
 30
39.5
 40
18.1962
100
AcDbArc
 50
-90
 51
-90
  0
LINE
  5
CA4
330
A02
100
AcDbEntity
  8
Compound
100
AcDbLine
 10
-5
 20
-2.79996
 30
47.5771
 11
-5
 21
0
 31
46.5
  0
LINE
  5
CA5
330
A02
100
AcDbEntity
  8
Compound
100
AcDbLine
 10
5
 20
-2.79996
 30
47.5771
 11
-5
 21
-2.79996
 31
47.5771
  0
LINE
  5
CA6
330
A02
100
AcDbEntity
  8
Compound
100
AcDbLine
 10
5
 20
-2.79996
 30
47.5771
 11
5
 21
0
 31
46.5
  0
LINE
  5
CA7
330
A02
100
AcDbEntity
  8
Compound
100
AcDbLine
 10
5
 20
0
 30
46.5
 11
-5
 21
0
 31
46.5
  0
ARC
  5
CA8
330
A02
100
AcDbEntity
  8
Compound
100
AcDbCircle
 10
-5
 20
18.1962
 30
39.5
 40
22.4962
100
AcDbArc
 50
-90
 51
-90
  0
LINE
  5
CA9
330
A02
100
AcDbEntity
  8
Compound
100
AcDbLine
 10
5
 20
-4.3
 30
39.5
 11
-5
 21
-4.3
 31
39.5
  0
ARC
  5
CAA
330
A02
100
AcDbEntity
  8
Compound
100
AcDbCircle
 10
5
 20
18.1962
 30
39.5
 40
22.4962
100
AcDbArc
 50
-90
 51
-90
  0
LINE
  5
CAB
330
A02
100
AcDbEntity
  8
Compound
100
AcDbLine
 10
5
 20
-2.79996
 30
47.5771
 11
-5
 21
-2.79996
 31
47.5771
  0
ARC
  5
CAC
330
A02
100
AcDbEntity
  8
Compound
100
AcDbCircle
 10
-5
 20
88.1236
 30
39.5
 40
92.0995
100
AcDbArc
 50
-90
 51
-90
  0
SPLINE
  5
CAD
330
A02
100
AcDbEntity
  8
Compound
100
AcDbSpline
210
0
220
0
230
1
 70
8
 71
3
 72
17
 73
13
 74
0
 40
0
 40
0
 40
0
 40
0
 40
0.00156631
 40
0.00156631
 40
0.00156631
 40
0.00313261
 40
0.00313261
 40
0.00313261
 40
0.00469892
 40
0.00469892
 40
0.00469892
 40
0.00626523
 40
0.00626523
 40
0.00626523
 40
0.00626523
 10
-5
 20
-3.97593
 30
31.7671
 10
-5.00001
 20
-3.93181
 30
31.2412
 10
-4.89712
 20
-3.88385
 30
30.7255
 10
-4.69636
 20
-3.83478
 30
30.2384
 10
-4.49799
 20
-3.78635
 30
29.7572
 10
-4.20321
 20
-3.73785
 30
29.3148
 10
-3.83239
 20
-3.69504
 30
28.9426
 10
-3.46706
 20
-3.65276
 30
28.5749
 10
-3.02006
 20
-3.61601
 30
28.2748
 10
-2.53727
 20
-3.59104
 30
28.0743
 10
-2.0565
 20
-3.566
 30
27.8736
 10
-1.52735
 20
-3.55212
 30
27.7663
 10
-1
 20
-3.55224
 30
27.7671
  0
LINE
  5
CAE
330
A02
100
AcDbEntity
  8
Compound
100
AcDbLine
 10
1
 20
-3.55224
 30
27.7671
 11
-1
 21
-3.55224
 31
27.7671
  0
SPLINE
  5
CAF
330
A02
100
AcDbEntity
  8
Compound
100
AcDbSpline
210
0
220
0
230
1
 70
8
 71
3
 72
17
 73
13
 74
0
 40
8.45678e-18
 40
8.45678e-18
 40
8.45678e-18
 40
8.45678e-18
 40
0.00156631
 40
0.00156631
 40
0.00156631
 40
0.00313261
 40
0.00313261
 40
0.00313261
 40
0.00469892
 40
0.00469892
 40
0.00469892
 40
0.00626523
 40
0.00626523
 40
0.00626523
 40
0.00626523
 10
1
 20
-3.55224
 30
27.7671
 10
1.52758
 20
-3.5522
 30
27.767
 10
2.04568
 20
-3.56565
 30
27.8708
 10
2.53403
 20
-3.59087
 30
28.0729
 10
3.01618
 20
-3.61572
 30
28.2724
 10
3.45941
 20
-3.6521
 30
28.5693
 10
3.83043
 20
-3.69482
 30
28.9406
 10
4.19737
 20
-3.73696
 30
29.3067
 10
4.49645
 20
-3.78607
 30
29.7545
 10
4.69501
 20
-3.83445
 30
30.2351
 10
4.8946
 20
-3.88291
 30
30.7156
 10
5.00068
 20
-3.93189
 30
31.2418
 10
5
 20
-3.97593
 30
31.7671
  0
ARC
  5
CB0
330
A02
100
AcDbEntity
  8
Compound
100
AcDbCircle
 10
5
 20
88.1236
 30
39.5
 40
92.0995
100
AcDbArc
 50
-90
 51
-90
  0
LINE
  5
CB1
330
A02
100
AcDbEntity
  8
Compound
100
AcDbLine
 10
5
 20
-4.3
 30
39.5
 11
-5
 21
-4.3
 31
39.5
  0
ARC
  5
CB2
330
A02
100
AcDbEntity
  8
Compound
100
AcDbCircle
 10
5
 20
88.1236
 30
39.5
 40
92.0995
100
AcDbArc
 50
-90
 51
-90
  0
LINE
  5
CB3
330
A02
100
AcDbEntity
  8
Compound
100
AcDbLine
 10
5
 20
-3.97593
 30
31.7671
 11
5
 21
-1.3
 31
31.7671
  0
LINE
  5
CB4
330
A02
100
AcDbEntity
  8
Compound
100
AcDbLine
 10
5
 20
-1.3
 30
31.7671
 11
5
 21
-1.3
 31
37
  0
LINE
  5
CB5
330
A02
100
AcDbEntity
  8
Compound
100
AcDbLine
 10
5
 20
-1.3
 30
39.5
 11
5
 21
-1.3
 31
37
  0
ARC
  5
CB6
330
A02
100
AcDbEntity
  8
Compound
100
AcDbCircle
 10
5
 20
18.1962
 30
39.5
 40
18.1962
100
AcDbArc
 50
-90
 51
-90
  0
LINE
  5
CB7
330
A02
100
AcDbEntity
  8
Compound
100
AcDbLine
 10
5
 20
-2.79996
 30
47.5771
 11
5
 21
0
 31
46.5
  0
ARC
  5
CB8
330
A02
100
AcDbEntity
  8
Compound
100
AcDbCircle
 10
5
 20
18.1962
 30
39.5
 40
22.4962
100
AcDbArc
 50
-90
 51
-90
  0
LINE
  5
CB9
330
A02
100
AcDbEntity
  8
Compound
100
AcDbLine
 10
-5
 20
-1.3
 30
31.7671
 11
-5
 21
-1.3
 31
37
  0
LINE
  5
CBA
330
A02
100
AcDbEntity
  8
Compound
100
AcDbLine
 10
-5
 20
-1.3
 30
31.7671
 11
-5
 21
-3.97593
 31
31.7671
  0
ARC
  5
CBB
330
A02
100
AcDbEntity
  8
Compound
100
AcDbCircle
 10
-5
 20
88.1236
 30
39.5
 40
92.0995
100
AcDbArc
 50
-90
 51
-90
  0
ARC
  5
CBC
330
A02
100
AcDbEntity
  8
Compound
100
AcDbCircle
 10
-5
 20
18.1962
 30
39.5
 40
22.4962
100
AcDbArc
 50
-90
 51
-90
  0
LINE
  5
CBD
330
A02
100
AcDbEntity
  8
Compound
100
AcDbLine
 10
-5
 20
-2.79996
 30
47.5771
 11
-5
 21
0
 31
46.5
  0
ARC
  5
CBE
330
A02
100
AcDbEntity
  8
Compound
100
AcDbCircle
 10
-5
 20
18.1962
 30
39.5
 40
18.1962
100
AcDbArc
 50
-90
 51
-90
  0
LINE
  5
CBF
330
A02
100
AcDbEntity
  8
Compound
100
AcDbLine
 10
-5
 20
-1.3
 30
39.5
 11
-5
 21
-1.3
 31
37
  0
ARC
  5
CC0
330
A02
100
AcDbEntity
  8
Compound
100
AcDbCircle
 10
-1
 20
-1.3
 30
31.7671
 40
4.44089e-16
100
AcDbArc
 50
180
 51
0
  0
LINE
  5
CC1
330
A02
100
AcDbEntity
  8
Compound
100
AcDbLine
 10
-1
 20
-3.55224
 30
27.7671
 11
-1
 21
-1.3
 31
27.7671
  0
SPLINE
  5
CC2
330
A02
100
AcDbEntity
  8
Compound
100
AcDbSpline
210
0
220
0
230
1
 70
8
 71
3
 72
17
 73
13
 74
0
 40
0
 40
0
 40
0
 40
0
 40
0.00156631
 40
0.00156631
 40
0.00156631
 40
0.00313261
 40
0.00313261
 40
0.00313261
 40
0.00469892
 40
0.00469892
 40
0.00469892
 40
0.00626523
 40
0.00626523
 40
0.00626523
 40
0.00626523
 10
-5
 20
-3.97593
 30
31.7671
 10
-5.00001
 20
-3.93181
 30
31.2412
 10
-4.89712
 20
-3.88385
 30
30.7255
 10
-4.69636
 20
-3.83478
 30
30.2384
 10
-4.49799
 20
-3.78635
 30
29.7572
 10
-4.20321
 20
-3.73785
 30
29.3148
 10
-3.83239
 20
-3.69504
 30
28.9426
 10
-3.46706
 20
-3.65276
 30
28.5749
 10
-3.02006
 20
-3.61601
 30
28.2748
 10
-2.53727
 20
-3.59104
 30
28.0743
 10
-2.0565
 20
-3.566
 30
27.8736
 10
-1.52735
 20
-3.55212
 30
27.7663
 10
-1
 20
-3.55224
 30
27.7671
  0
LINE
  5
CC3
330
A02
100
AcDbEntity
  8
Compound
100
AcDbLine
 10
-5
 20
-1.3
 30
31.7671
 11
-5
 21
-3.97593
 31
31.7671
  0
ARC
  5
CC4
330
A02
100
AcDbEntity
  8
Compound
100
AcDbCircle
 10
1
 20
-1.3
 30
31.7671
 40
4
100
AcDbArc
 50
0
 51
0
  0
LINE
  5
CC5
330
A02
100
AcDbEntity
  8
Compound
100
AcDbLine
 10
5
 20
-3.97593
 30
31.7671
 11
5
 21
-1.3
 31
31.7671
  0
SPLINE
  5
CC6
330
A02
100
AcDbEntity
  8
Compound
100
AcDbSpline
210
0
220
0
230
1
 70
8
 71
3
 72
17
 73
13
 74
0
 40
8.45678e-18
 40
8.45678e-18
 40
8.45678e-18
 40
8.45678e-18
 40
0.00156631
 40
0.00156631
 40
0.00156631
 40
0.00313261
 40
0.00313261
 40
0.00313261
 40
0.00469892
 40
0.00469892
 40
0.00469892
 40
0.00626523
 40
0.00626523
 40
0.00626523
 40
0.00626523
 10
1
 20
-3.55224
 30
27.7671
 10
1.52758
 20
-3.5522
 30
27.767
 10
2.04568
 20
-3.56565
 30
27.8708
 10
2.53403
 20
-3.59087
 30
28.0729
 10
3.01618
 20
-3.61572
 30
28.2724
 10
3.45941
 20
-3.6521
 30
28.5693
 10
3.83043
 20
-3.69482
 30
28.9406
 10
4.19737
 20
-3.73696
 30
29.3067
 10
4.49645
 20
-3.78607
 30
29.7545
 10
4.69501
 20
-3.83445
 30
30.2351
 10
4.8946
 20
-3.88291
 30
30.7156
 10
5.00068
 20
-3.93189
 30
31.2418
 10
5
 20
-3.97593
 30
31.7671
  0
LINE
  5
CC7
330
A02
100
AcDbEntity
  8
Compound
100
AcDbLine
 10
1
 20
-1.3
 30
27.7671
 11
1
 21
-3.55224
 31
27.7671
  0
ARC
  5
CC8
330
A02
100
AcDbEntity
  8
Compound
100
AcDbCircle
 10
2.75
 20
-2.5
 30
11
 40
1.2
100
AcDbArc
 50
90
 51
90
  0
LINE
  5
CC9
330
A02
100
AcDbEntity
  8
Compound
100
AcDbLine
 10
2.75
 20
-1.3
 30
12.6
 11
2.75
 21
-1.3
 31
16.5358
  0
SPLINE
  5
CCA
330
A02
100
AcDbEntity
  8
Compound
100
AcDbSpline
210
0
220
0
230
1
 70
8
 71
3
 72
92
 73
88
 74
0
 40
0
 40
0
 40
0
 40
0
 40
0.00335128
 40
0.00335128
 40
0.00335128
 40
0.00502691
 40
0.00502691
 40
0.00502691
 40
0.00670255
 40
0.00670255
 40
0.00670255
 40
0.0100538
 40
0.0100538
 40
0.0100538
 40
0.0134051
 40
0.0134051
 40
0.0134051
 40
0.0201077
 40
0.0201077
 40
0.0201077
 40
0.0268102
 40
0.0268102
 40
0.0268102
 40
0.0301615
 40
0.0301615
 40
0.0301615
 40
0.0318371
 40
0.0318371
 40
0.0318371
 40
0.0326749
 40
0.0326749
 40
0.0326749
 40
0.0335128
 40
0.0335128
 40
0.0335128
 40
0.0343506
 40
0.0343506
 40
0.0343506
 40
0.0351884
 40
0.0351884
 40
0.0351884
 40
0.036864
 40
0.036864
 40
0.036864
 40
0.0385397
 40
0.0385397
 40
0.0385397
 40
0.0402153
 40
0.0402153
 40
0.0402153
 40
0.0435666
 40
0.0435666
 40
0.0435666
 40
0.0469179
 40
0.0469179
 40
0.0469179
 40
0.0536204
 40
0.0536204
 40
0.0536204
 40
0.060323
 40
0.060323
 40
0.060323
 40
0.0670255
 40
0.0670255
 40
0.0670255
 40
0.0737281
 40
0.0737281
 40
0.0737281
 40
0.0804306
 40
0.0804306
 40
0.0804306
 40
0.0871332
 40
0.0871332
 40
0.0871332
 40
0.0938357
 40
0.0938357
 40
0.0938357
 40
0.100538
 40
0.100538
 40
0.100538
 40
0.10389
 40
0.10389
 40
0.10389
 40
0.105565
 40
0.105565
 40
0.105565
 40
0.107241
 40
0.107241
 40
0.107241
 40
0.107241
 10
2.75
 20
-1.3
 30
16.5358
 10
2.75
 20
-2.33626
 30
16.1098
 10
2.75
 20
-3.42116
 30
15.8079
 10
2.75
 20
-4.51518
 30
15.7232
 10
2.75
 20
-5.06389
 30
15.6791
 10
2.75
 20
-5.61762
 30
15.6867
 10
2.75
 20
-6.17636
 30
15.7462
 10
2.75
 20
-6.73179
 30
15.8073
 10
2.75
 20
-7.27523
 30
15.9132
 10
2.75
 20
-7.80666
 30
16.064
 10
2.75
 20
-8.8687
 30
16.3613
 10
2.75
 20
-9.89912
 30
16.8234
 10
2.75
 20
-10.8719
 30
17.3529
 10
2.75
 20
-11.847
 30
17.8833
 10
2.75
 20
-12.7815
 30
18.4866
 10
2.75
 20
-13.6974
 30
19.1187
 10
2.75
 20
-15.5277
 30
20.3849
 10
2.75
 20
-17.282
 30
21.7558
 10
2.75
 20
-19.0672
 30
23.0841
 10
2.75
 20
-20.8502
 30
24.4107
 10
2.75
 20
-22.6621
 30
25.7194
 10
2.75
 20
-24.579
 30
26.8377
 10
2.75
 20
-25.5376
 30
27.3938
 10
2.75
 20
-26.5202
 30
27.9032
 10
2.75
 20
-27.5584
 30
28.3048
 10
2.75
 20
-28.0778
 30
28.5049
 10
2.75
 20
-28.6163
 30
28.6782
 10
2.75
 20
-29.1623
 30
28.7963
 10
2.75
 20
-29.4352
 30
28.8563
 10
2.75
 20
-29.7109
 30
28.8997
 10
2.75
 20
-29.9895
 30
28.9266
 10
2.75
 20
-30.2701
 30
28.9542
 10
2.75
 20
-30.551
 30
28.9572
 10
2.75
 20
-30.8322
 30
28.9357
 10
2.75
 20
-31.1109
 30
28.9126
 10
2.75
 20
-31.3884
 30
28.8599
 10
2.75
 20
-31.6557
 30
28.764
 10
2.75
 20
-31.9217
 30
28.6689
 10
2.75
 20
-32.1657
 30
28.5328
 10
2.75
 20
-32.3875
 30
28.3556
 10
2.75
 20
-32.8294
 30
28.0016
 10
2.75
 20
-33.1438
 30
27.513
 10
2.75
 20
-33.3743
 30
27.0053
 10
2.75
 20
-33.604
 30
26.498
 10
2.75
 20
-33.7601
 30
25.9493
 10
2.75
 20
-33.8697
 30
25.4048
 10
2.75
 20
-33.976
 30
24.8605
 10
2.75
 20
-34.0456
 30
24.3151
 10
2.75
 20
-34.0785
 30
23.7687
 10
2.75
 20
-34.15
 30
22.6759
 10
2.75
 20
-34.11
 30
21.5799
 10
2.75
 20
-34.007
 30
20.482
 10
2.75
 20
-33.9035
 30
19.3823
 10
2.75
 20
-33.7347
 30
18.2857
 10
2.75
 20
-33.5239
 30
17.2056
 10
2.75
 20
-33.1003
 30
15.0431
 10
2.75
 20
-32.5089
 30
12.9201
 10
2.75
 20
-31.8137
 30
10.8224
 10
2.75
 20
-31.1175
 30
8.72537
 10
2.75
 20
-30.3216
 30
6.67834
 10
2.75
 20
-29.4523
 30
4.66811
 10
2.75
 20
-28.5811
 30
2.65884
 10
2.75
 20
-27.6414
 30
0.683911
 10
2.75
 20
-26.6333
 30
-1.25669
 10
2.75
 20
-25.6265
 30
-3.19788
 10
2.75
 20
-24.5589
 30
-5.10864
 10
2.75
 20
-23.4306
 30
-6.98895
 10
2.75
 20
-22.3037
 30
-8.86858
 10
2.75
 20
-21.1155
 30
-10.7231
 10
2.75
 20
-19.8725
 30
-12.5403
 10
2.75
 20
-18.6315
 30
-14.3567
 10
2.75
 20
-17.3372
 30
-16.1282
 10
2.75
 20
-15.9894
 30
-17.8546
 10
2.75
 20
-14.6406
 30
-19.5802
 10
2.75
 20
-13.2366
 30
-21.2593
 10
2.75
 20
-11.7565
 30
-22.8743
 10
2.75
 20
-10.2752
 30
-24.4866
 10
2.75
 20
-8.72317
 30
-26.0457
 10
2.75
 20
-7.0247
 30
-27.4733
 10
2.75
 20
-6.17455
 30
-28.1841
 10
2.75
 20
-5.2974
 30
-28.8547
 10
2.75
 20
-4.36257
 30
-29.4394
 10
2.75
 20
-3.89478
 30
-29.7312
 10
2.75
 20
-3.41247
 30
-30.0013
 10
2.75
 20
-2.90139
 30
-30.2287
 10
2.75
 20
-2.38831
 30
-30.4534
 10
2.75
 20
-1.86195
 30
-30.6422
 10
2.75
 20
-1.3
 30
-30.6957
  0
LINE
  5
CCB
330
A02
100
AcDbEntity
  8
Compound
100
AcDbLine
 10
2.75
 20
-1.3
 30
-30.6957
 11
2.75
 21
-1.3
 31
9.4
  0
ARC
  5
CCC
330
A02
100
AcDbEntity
  8
Compound
100
AcDbCircle
 10
2.75
 20
-2.5
 30
11
 40
0
100
AcDbArc
 50
90
 51
0
  0
ARC
  5
CCD
330
A02
100
AcDbEntity
  8
Compound
100
AcDbCircle
 10
2.75
 20
-2.5
 30
11
 40
4.44089e-16
100
AcDbArc
 50
-90
 51
90
  0
SPLINE
  5
CCE
330
A02
100
AcDbEntity
  8
Compound
100
AcDbSpline
210
0
220
0
230
1
 70
8
 71
3
 72
56
 73
52
 74
0
 40
0.00036541
 40
0.00036541
 40
0.00036541
 40
0.00036541
 40
0.0013347
 40
0.0013347
 40
0.0013347
 40
0.00230399
 40
0.00230399
 40
0.00230399
 40
0.00424257
 40
0.00424257
 40
0.00424257
 40
0.00618115
 40
0.00618115
 40
0.00618115
 40
0.00811973
 40
0.00811973
 40
0.00811973
 40
0.0119969
 40
0.0119969
 40
0.0119969
 40
0.0158741
 40
0.0158741
 40
0.0158741
 40
0.0236284
 40
0.0236284
 40
0.0236284
 40
0.0313827
 40
0.0313827
 40
0.0313827
 40
0.039137
 40
0.039137
 40
0.039137
 40
0.0468914
 40
0.0468914
 40
0.0468914
 40
0.0507685
 40
0.0507685
 40
0.0507685
 40
0.0546457
 40
0.0546457
 40
0.0546457
 40
0.0565843
 40
0.0565843
 40
0.0565843
 40
0.0585228
 40
0.0585228
 40
0.0585228
 40
0.0604614
 40
0.0604614
 40
0.0604614
 40
0.0624
 40
0.0624
 40
0.0624
 40
0.0624
 10
2.75
 20
-5.14815
 30
-20.6023
 10
2.75
 20
-5.44501
 30
-20.7303
 10
2.75
 20
-5.74969
 30
-20.8232
 10
2.75
 20
-6.06219
 30
-20.8809
 10
2.75
 20
-6.3766
 30
-20.9389
 10
2.75
 20
-6.69547
 30
-20.9651
 10
2.75
 20
-7.01879
 30
-20.9593
 10
2.75
 20
-7.65959
 30
-20.9487
 10
2.75
 20
-8.29111
 30
-20.8195
 10
2.75
 20
-8.90086
 30
-20.6179
 10
2.75
 20
-9.50772
 30
-20.4169
 10
2.75
 20
-10.0825
 30
-20.1486
 10
2.75
 20
-10.6377
 30
-19.8394
 10
2.75
 20
-11.1929
 30
-19.5303
 10
2.75
 20
-11.7302
 30
-19.1777
 10
2.75
 20
-12.2439
 30
-18.8038
 10
2.75
 20
-13.2714
 30
-18.056
 10
2.75
 20
-14.2182
 30
-17.2198
 10
2.75
 20
-15.1215
 30
-16.336
 10
2.75
 20
-16.0241
 30
-15.4525
 10
2.75
 20
-16.8835
 30
-14.517
 10
2.75
 20
-17.708
 30
-13.5508
 10
2.75
 20
-19.3534
 30
-11.6195
 10
2.75
 20
-20.8462
 30
-9.58971
 10
2.75
 20
-22.2405
 30
-7.49621
 10
2.75
 20
-23.6319
 30
-5.40086
 10
2.75
 20
-24.9253
 30
-3.24229
 10
2.75
 20
-26.1209
 30
-1.0205
 10
2.75
 20
-27.3173
 30
1.19925
 10
2.75
 20
-28.4253
 30
3.48988
 10
2.75
 20
-29.4079
 30
5.80905
 10
2.75
 20
-30.3898
 30
8.13088
 10
2.75
 20
-31.2575
 30
10.4916
 10
2.75
 20
-31.9491
 30
12.9122
 10
2.75
 20
-32.2941
 30
14.1227
 10
2.75
 20
-32.5941
 30
15.3486
 10
2.75
 20
-32.8246
 30
16.5982
 10
2.75
 20
-33.0545
 30
17.8505
 10
2.75
 20
-33.2163
 30
19.1208
 10
2.75
 20
-33.2446
 30
20.3872
 10
2.75
 20
-33.2617
 30
21.0213
 10
2.75
 20
-33.2348
 30
21.6569
 10
2.75
 20
-33.1639
 30
22.2939
 10
2.75
 20
-33.0896
 30
22.9311
 10
2.75
 20
-32.9626
 30
23.5579
 10
2.75
 20
-32.7527
 30
24.1603
 10
2.75
 20
-32.5421
 30
24.765
 10
2.75
 20
-32.2443
 30
25.3456
 10
2.75
 20
-31.8404
 30
25.843
 10
2.75
 20
-31.4341
 30
26.3447
 10
2.75
 20
-30.9298
 30
26.7518
 10
2.75
 20
-30.3427
 30
27.0274
  0
SPLINE
  5
CCF
330
A02
100
AcDbEntity
  8
Compound
100
AcDbSpline
210
0
220
0
230
1
 70
8
 71
3
 72
59
 73
55
 74
0
 40
0.0624
 40
0.0624
 40
0.0624
 40
0.0624
 40
0.0633692
 40
0.0633692
 40
0.0633692
 40
0.0643385
 40
0.0643385
 40
0.0643385
 40
0.0662769
 40
0.0662769
 40
0.0662769
 40
0.0682154
 40
0.0682154
 40
0.0682154
 40
0.0701539
 40
0.0701539
 40
0.0701539
 40
0.0740308
 40
0.0740308
 40
0.0740308
 40
0.0779077
 40
0.0779077
 40
0.0779077
 40
0.0817847
 40
0.0817847
 40
0.0817847
 40
0.0856616
 40
0.0856616
 40
0.0856616
 40
0.0934154
 40
0.0934154
 40
0.0934154
 40
0.101169
 40
0.101169
 40
0.101169
 40
0.108923
 40
0.108923
 40
0.108923
 40
0.1128
 40
0.1128
 40
0.1128
 40
0.116677
 40
0.116677
 40
0.116677
 40
0.118615
 40
0.118615
 40
0.118615
 40
0.120554
 40
0.120554
 40
0.120554
 40
0.122492
 40
0.122492
 40
0.122492
 40
0.124431
 40
0.124431
 40
0.124431
 40
0.124431
 10
2.75
 20
-30.3427
 30
27.0274
 10
2.75
 20
-30.0489
 30
27.1646
 10
2.75
 20
-29.7454
 30
27.2667
 10
2.75
 20
-29.4322
 30
27.3336
 10
2.75
 20
-29.1175
 30
27.4002
 10
2.75
 20
-28.799
 30
27.4344
 10
2.75
 20
-28.4766
 30
27.436
 10
2.75
 20
-27.8371
 30
27.44
 10
2.75
 20
-27.2135
 30
27.3257
 10
2.75
 20
-26.6003
 30
27.1337
 10
2.75
 20
-25.9872
 30
26.9416
 10
2.75
 20
-25.4051
 30
26.6783
 10
2.75
 20
-24.843
 30
26.3721
 10
2.75
 20
-24.2813
 30
26.0627
 10
2.75
 20
-23.7426
 30
25.7211
 10
2.75
 20
-23.227
 30
25.3471
 10
2.75
 20
-22.1949
 30
24.6054
 10
2.75
 20
-21.2381
 30
23.7675
 10
2.75
 20
-20.3231
 30
22.8771
 10
2.75
 20
-19.4081
 30
21.9866
 10
2.75
 20
-18.5445
 30
21.0493
 10
2.75
 20
-17.7156
 30
20.0803
 10
2.75
 20
-16.8871
 30
19.1088
 10
2.75
 20
-16.0937
 30
18.1137
 10
2.75
 20
-15.3356
 30
17.0949
 10
2.75
 20
-14.5778
 30
16.078
 10
2.75
 20
-13.8495
 30
15.0438
 10
2.75
 20
-13.1507
 30
13.9922
 10
2.75
 20
-11.7534
 30
11.889
 10
2.75
 20
-10.4569
 30
9.72634
 10
2.75
 20
-9.26124
 30
7.50439
 10
2.75
 20
-8.06104
 30
5.2851
 10
2.75
 20
-6.96367
 30
3.0053
 10
2.75
 20
-5.96913
 30
0.664973
 10
2.75
 20
-4.97743
 30
-1.68012
 10
2.75
 20
-4.10227
 30
-4.06628
 10
2.75
 20
-3.41145
 30
-6.49721
 10
2.75
 20
-3.06653
 30
-7.7136
 10
2.75
 20
-2.76806
 30
-8.94284
 10
2.75
 20
-2.5406
 30
-10.1917
 10
2.75
 20
-2.31446
 30
-11.4373
 10
2.75
 20
-2.15392
 30
-12.7189
 10
2.75
 20
-2.13167
 30
-13.9981
 10
2.75
 20
-2.11781
 30
-14.6365
 10
2.75
 20
-2.14893
 30
-15.2735
 10
2.75
 20
-2.22504
 30
-15.9092
 10
2.75
 20
-2.30471
 30
-16.546
 10
2.75
 20
-2.44096
 30
-17.1827
 10
2.75
 20
-2.66012
 30
-17.7819
 10
2.75
 20
-2.87773
 30
-18.3803
 10
2.75
 20
-3.19185
 30
-18.9644
 10
2.75
 20
-3.60835
 30
-19.4522
 10
2.75
 20
-4.02651
 30
-19.9453
 10
2.75
 20
-4.55351
 30
-20.3457
 10
2.75
 20
-5.14815
 30
-20.6023
  0
SPLINE
  5
CD0
330
A02
100
AcDbEntity
  8
Compound
100
AcDbSpline
210
0
220
0
230
1
 70
8
 71
3
 72
56
 73
52
 74
0
 40
0.00036541
 40
0.00036541
 40
0.00036541
 40
0.00036541
 40
0.0013347
 40
0.0013347
 40
0.0013347
 40
0.00230399
 40
0.00230399
 40
0.00230399
 40
0.00424257
 40
0.00424257
 40
0.00424257
 40
0.00618115
 40
0.00618115
 40
0.00618115
 40
0.00811973
 40
0.00811973
 40
0.00811973
 40
0.0119969
 40
0.0119969
 40
0.0119969
 40
0.0158741
 40
0.0158741
 40
0.0158741
 40
0.0236284
 40
0.0236284
 40
0.0236284
 40
0.0313827
 40
0.0313827
 40
0.0313827
 40
0.039137
 40
0.039137
 40
0.039137
 40
0.0468914
 40
0.0468914
 40
0.0468914
 40
0.0507685
 40
0.0507685
 40
0.0507685
 40
0.0546457
 40
0.0546457
 40
0.0546457
 40
0.0565843
 40
0.0565843
 40
0.0565843
 40
0.0585228
 40
0.0585228
 40
0.0585228
 40
0.0604614
 40
0.0604614
 40
0.0604614
 40
0.0624
 40
0.0624
 40
0.0624
 40
0.0624
 10
-2.75
 20
-4.50666
 30
-20.2537
 10
-2.75
 20
-4.23778
 30
-20.0742
 10
-2.75
 20
-3.99412
 30
-19.8691
 10
-2.75
 20
-3.77568
 30
-19.6383
 10
-2.75
 20
-3.55596
 30
-19.406
 10
-2.75
 20
-3.36058
 30
-19.1527
 10
-2.75
 20
-3.18954
 30
-18.8782
 10
-2.75
 20
-2.84984
 30
-18.3348
 10
-2.75
 20
-2.61472
 30
-17.7346
 10
-2.75
 20
-2.4522
 30
-17.1133
 10
-2.75
 20
-2.29074
 30
-16.4947
 10
-2.75
 20
-2.20322
 30
-15.8665
 10
-2.75
 20
-2.16059
 30
-15.2325
 10
-2.75
 20
-2.11796
 30
-14.5984
 10
-2.75
 20
-2.12155
 30
-13.9558
 10
-2.75
 20
-2.15581
 30
-13.3213
 10
-2.75
 20
-2.22432
 30
-12.0524
 10
-2.75
 20
-2.41094
 30
-10.803
 10
-2.75
 20
-2.66119
 30
-9.5643
 10
-2.75
 20
-2.9115
 30
-8.32638
 10
-2.75
 20
-3.22902
 30
-7.09631
 10
-2.75
 20
-3.59118
 30
-5.87891
 10
-2.75
 20
-4.31666
 30
-3.44767
 10
-2.75
 20
-5.20776
 30
-1.09082
 10
-2.75
 20
-6.20596
 30
1.21791
 10
-2.75
 20
-7.20726
 30
3.52525
 10
-2.75
 20
-8.31487
 30
5.78483
 10
-2.75
 20
-9.52879
 30
7.99665
 10
-2.75
 20
-10.7405
 30
10.2081
 10
-2.75
 20
-12.0599
 30
12.3839
 10
-2.75
 20
-13.4713
 30
14.4699
 10
-2.75
 20
-14.8854
 30
16.5569
 10
-2.75
 20
-16.3942
 30
18.5692
 10
-2.75
 20
-18.0492
 30
20.4662
 10
-2.75
 20
-18.8773
 30
21.4142
 10
-2.75
 20
-19.7427
 30
22.3329
 10
-2.75
 20
-20.6658
 30
23.206
 10
-2.75
 20
-21.5916
 30
24.0801
 10
-2.75
 20
-22.5694
 30
24.9069
 10
-2.75
 20
-23.6167
 30
25.6196
 10
-2.75
 20
-24.1394
 30
25.9789
 10
-2.75
 20
-24.6874
 30
26.302
 10
-2.75
 20
-25.2605
 30
26.5891
 10
-2.75
 20
-25.8356
 30
26.8734
 10
-2.75
 20
-26.4306
 30
27.1078
 10
-2.75
 20
-27.0502
 30
27.2593
 10
-2.75
 20
-27.6722
 30
27.4116
 10
-2.75
 20
-28.3214
 30
27.4776
 10
-2.75
 20
-28.9585
 30
27.4092
 10
-2.75
 20
-29.6004
 30
27.3412
 10
-2.75
 20
-30.2164
 30
27.1395
 10
-2.75
 20
-30.767
 30
26.7968
  0
SPLINE
  5
CD1
330
A02
100
AcDbEntity
  8
Compound
100
AcDbSpline
210
0
220
0
230
1
 70
8
 71
3
 72
59
 73
55
 74
0
 40
0.0624
 40
0.0624
 40
0.0624
 40
0.0624
 40
0.0633692
 40
0.0633692
 40
0.0633692
 40
0.0643385
 40
0.0643385
 40
0.0643385
 40
0.0662769
 40
0.0662769
 40
0.0662769
 40
0.0682154
 40
0.0682154
 40
0.0682154
 40
0.0701539
 40
0.0701539
 40
0.0701539
 40
0.0740308
 40
0.0740308
 40
0.0740308
 40
0.0779077
 40
0.0779077
 40
0.0779077
 40
0.0817847
 40
0.0817847
 40
0.0817847
 40
0.0856616
 40
0.0856616
 40
0.0856616
 40
0.0934154
 40
0.0934154
 40
0.0934154
 40
0.101169
 40
0.101169
 40
0.101169
 40
0.108923
 40
0.108923
 40
0.108923
 40
0.1128
 40
0.1128
 40
0.1128
 40
0.116677
 40
0.116677
 40
0.116677
 40
0.118615
 40
0.118615
 40
0.118615
 40
0.120554
 40
0.120554
 40
0.120554
 40
0.122492
 40
0.122492
 40
0.122492
 40
0.124431
 40
0.124431
 40
0.124431
 40
0.124431
 10
-2.75
 20
-30.767
 30
26.7968
 10
-2.75
 20
-31.042
 30
26.6249
 10
-2.75
 20
-31.2928
 30
26.4257
 10
-2.75
 20
-31.5192
 30
26.1993
 10
-2.75
 20
-31.7464
 30
25.9716
 10
-2.75
 20
-31.9483
 30
25.7228
 10
-2.75
 20
-32.125
 30
25.4532
 10
-2.75
 20
-32.4763
 30
24.9188
 10
-2.75
 20
-32.7196
 30
24.3333
 10
-2.75
 20
-32.892
 30
23.7144
 10
-2.75
 20
-33.0644
 30
23.0954
 10
-2.75
 20
-33.1601
 30
22.4638
 10
-2.75
 20
-33.2089
 30
21.8255
 10
-2.75
 20
-33.2549
 30
21.1859
 10
-2.75
 20
-33.2613
 30
20.5481
 10
-2.75
 20
-33.228
 30
19.912
 10
-2.75
 20
-33.167
 30
18.6424
 10
-2.75
 20
-32.9845
 30
17.3838
 10
-2.75
 20
-32.735
 30
16.1317
 10
-2.75
 20
-32.4856
 30
14.8795
 10
-2.75
 20
-32.1689
 30
13.6449
 10
-2.75
 20
-31.8067
 30
12.4223
 10
-2.75
 20
-31.4423
 30
11.1987
 10
-2.75
 20
-31.0388
 30
9.99166
 10
-2.75
 20
-30.5964
 30
8.80125
 10
-2.75
 20
-30.1554
 30
7.61225
 10
-2.75
 20
-29.6837
 30
6.43855
 10
-2.75
 20
-29.1815
 30
5.28017
 10
-2.75
 20
-28.1768
 30
2.96353
 10
-2.75
 20
-27.0674
 30
0.699209
 10
-2.75
 20
-25.8534
 30
-1.51278
 10
-2.75
 20
-24.6441
 30
-3.72713
 10
-2.75
 20
-23.3281
 30
-5.88811
 10
-2.75
 20
-21.9053
 30
-7.99572
 10
-2.75
 20
-20.4771
 30
-10.1035
 10
-2.75
 20
-18.9509
 30
-12.1359
 10
-2.75
 20
-17.2869
 30
-14.038
 10
-2.75
 20
-16.4539
 30
-14.9891
 10
-2.75
 20
-15.5848
 30
-15.9082
 10
-2.75
 20
-14.6606
 30
-16.7785
 10
-2.75
 20
-13.7385
 30
-17.6458
 10
-2.75
 20
-12.7504
 30
-18.4777
 10
-2.75
 20
-11.6892
 30
-19.1922
 10
-2.75
 20
-11.1611
 30
-19.5511
 10
-2.75
 20
-10.6096
 30
-19.8715
 10
-2.75
 20
-10.0348
 30
-20.1535
 10
-2.75
 20
-9.45714
 30
-20.433
 10
-2.75
 20
-8.8487
 30
-20.6651
 10
-2.75
 20
-8.22673
 30
-20.8071
 10
-2.75
 20
-7.60625
 30
-20.95
 10
-2.75
 20
-6.94527
 30
-21.0042
 10
-2.75
 20
-6.30934
 30
-20.9201
 10
-2.75
 20
-5.66815
 30
-20.8374
 10
-2.75
 20
-5.04545
 30
-20.6131
 10
-2.75
 20
-4.50666
 30
-20.2537
  0
LINE
  5
CD2
330
A02
100
AcDbEntity
  8
Compound
100
AcDbLine
 10
-2.75
 20
-1.3
 30
12.6
 11
-2.75
 21
-1.3
 31
16.5358
  0
ARC
  5
CD3
330
A02
100
AcDbEntity
  8
Compound
100
AcDbCircle
 10
-2.75
 20
-2.5
 30
11
 40
1.2
100
AcDbArc
 50
90
 51
90
  0
ARC
  5
CD4
330
A02
100
AcDbEntity
  8
Compound
100
AcDbCircle
 10
-2.75
 20
-2.5
 30
11
 40
4.44089e-16
100
AcDbArc
 50
-90
 51
90
  0
ARC
  5
CD5
330
A02
100
AcDbEntity
  8
Compound
100
AcDbCircle
 10
-2.75
 20
-2.5
 30
11
 40
0
100
AcDbArc
 50
90
 51
0
  0
LINE
  5
CD6
330
A02
100
AcDbEntity
  8
Compound
100
AcDbLine
 10
-2.75
 20
-1.3
 30
-30.6957
 11
-2.75
 21
-1.3
 31
9.4
  0
SPLINE
  5
CD7
330
A02
100
AcDbEntity
  8
Compound
100
AcDbSpline
210
0
220
0
230
1
 70
8
 71
3
 72
92
 73
88
 74
0
 40
0
 40
0
 40
0
 40
0
 40
0.00166832
 40
0.00166832
 40
0.00166832
 40
0.00333664
 40
0.00333664
 40
0.00333664
 40
0.00667327
 40
0.00667327
 40
0.00667327
 40
0.0133465
 40
0.0133465
 40
0.0133465
 40
0.0200198
 40
0.0200198
 40
0.0200198
 40
0.0266931
 40
0.0266931
 40
0.0266931
 40
0.0333664
 40
0.0333664
 40
0.0333664
 40
0.0400396
 40
0.0400396
 40
0.0400396
 40
0.0467129
 40
0.0467129
 40
0.0467129
 40
0.0533862
 40
0.0533862
 40
0.0533862
 40
0.0600594
 40
0.0600594
 40
0.0600594
 40
0.0633961
 40
0.0633961
 40
0.0633961
 40
0.0667327
 40
0.0667327
 40
0.0667327
 40
0.068401
 40
0.068401
 40
0.068401
 40
0.0700694
 40
0.0700694
 40
0.0700694
 40
0.0717377
 40
0.0717377
 40
0.0717377
 40
0.0725718
 40
0.0725718
 40
0.0725718
 40
0.073406
 40
0.073406
 40
0.073406
 40
0.0742401
 40
0.0742401
 40
0.0742401
 40
0.0750743
 40
0.0750743
 40
0.0750743
 40
0.0767426
 40
0.0767426
 40
0.0767426
 40
0.0800793
 40
0.0800793
 40
0.0800793
 40
0.0867525
 40
0.0867525
 40
0.0867525
 40
0.0934258
 40
0.0934258
 40
0.0934258
 40
0.0967624
 40
0.0967624
 40
0.0967624
 40
0.100099
 40
0.100099
 40
0.100099
 40
0.101767
 40
0.101767
 40
0.101767
 40
0.103436
 40
0.103436
 40
0.103436
 40
0.106772
 40
0.106772
 40
0.106772
 40
0.106772
 10
-2.75
 20
-1.3
 30
-30.6957
 10
-2.75
 20
-1.86195
 30
-30.6422
 10
-2.75
 20
-2.38831
 30
-30.4534
 10
-2.75
 20
-2.90139
 30
-30.2287
 10
-2.75
 20
-3.41247
 30
-30.0013
 10
-2.75
 20
-3.89478
 30
-29.7312
 10
-2.75
 20
-4.36257
 30
-29.4394
 10
-2.75
 20
-5.2974
 30
-28.8547
 10
-2.75
 20
-6.17455
 30
-28.1841
 10
-2.75
 20
-7.0247
 30
-27.4733
 10
-2.75
 20
-8.72317
 30
-26.0457
 10
-2.75
 20
-10.2752
 30
-24.4866
 10
-2.75
 20
-11.7565
 30
-22.8743
 10
-2.75
 20
-13.2366
 30
-21.2593
 10
-2.75
 20
-14.6406
 30
-19.5802
 10
-2.75
 20
-15.9894
 30
-17.8546
 10
-2.75
 20
-17.3372
 30
-16.1282
 10
-2.75
 20
-18.6315
 30
-14.3567
 10
-2.75
 20
-19.8725
 30
-12.5403
 10
-2.75
 20
-21.1155
 30
-10.7231
 10
-2.75
 20
-22.3037
 30
-8.86858
 10
-2.75
 20
-23.4306
 30
-6.98895
 10
-2.75
 20
-24.5589
 30
-5.10864
 10
-2.75
 20
-25.6265
 30
-3.19788
 10
-2.75
 20
-26.6333
 30
-1.25669
 10
-2.75
 20
-27.6414
 30
0.683911
 10
-2.75
 20
-28.5811
 30
2.65884
 10
-2.75
 20
-29.4523
 30
4.66811
 10
-2.75
 20
-30.3216
 30
6.67834
 10
-2.75
 20
-31.1175
 30
8.72537
 10
-2.75
 20
-31.8137
 30
10.8224
 10
-2.75
 20
-32.5089
 30
12.9201
 10
-2.75
 20
-33.1003
 30
15.0431
 10
-2.75
 20
-33.5239
 30
17.2056
 10
-2.75
 20
-33.7347
 30
18.2857
 10
-2.75
 20
-33.9035
 30
19.3823
 10
-2.75
 20
-34.007
 30
20.482
 10
-2.75
 20
-34.11
 30
21.5799
 10
-2.75
 20
-34.15
 30
22.6759
 10
-2.75
 20
-34.0785
 30
23.7687
 10
-2.75
 20
-34.0456
 30
24.3151
 10
-2.75
 20
-33.976
 30
24.8605
 10
-2.75
 20
-33.8697
 30
25.4048
 10
-2.75
 20
-33.7601
 30
25.9493
 10
-2.75
 20
-33.604
 30
26.498
 10
-2.75
 20
-33.3743
 30
27.0053
 10
-2.75
 20
-33.1438
 30
27.513
 10
-2.75
 20
-32.8294
 30
28.0016
 10
-2.75
 20
-32.3875
 30
28.3556
 10
-2.75
 20
-32.1657
 30
28.5328
 10
-2.75
 20
-31.9217
 30
28.6689
 10
-2.75
 20
-31.6557
 30
28.764
 10
-2.75
 20
-31.3884
 30
28.8599
 10
-2.75
 20
-31.1109
 30
28.9126
 10
-2.75
 20
-30.8322
 30
28.9357
 10
-2.75
 20
-30.551
 30
28.9572
 10
-2.75
 20
-30.2701
 30
28.9542
 10
-2.75
 20
-29.9895
 30
28.9266
 10
-2.75
 20
-29.7109
 30
28.8997
 10
-2.75
 20
-29.4352
 30
28.8563
 10
-2.75
 20
-29.1623
 30
28.7963
 10
-2.75
 20
-28.6163
 30
28.6782
 10
-2.75
 20
-28.0778
 30
28.5049
 10
-2.75
 20
-27.5584
 30
28.3048
 10
-2.75
 20
-26.5202
 30
27.9032
 10
-2.75
 20
-25.5376
 30
27.3938
 10
-2.75
 20
-24.579
 30
26.8377
 10
-2.75
 20
-22.6621
 30
25.7194
 10
-2.75
 20
-20.8502
 30
24.4107
 10
-2.75
 20
-19.0672
 30
23.0841
 10
-2.75
 20
-17.282
 30
21.7558
 10
-2.75
 20
-15.5277
 30
20.3849
 10
-2.75
 20
-13.6974
 30
19.1187
 10
-2.75
 20
-12.7815
 30
18.4866
 10
-2.75
 20
-11.847
 30
17.8833
 10
-2.75
 20
-10.8719
 30
17.3529
 10
-2.75
 20
-9.89912
 30
16.8234
 10
-2.75
 20
-8.8687
 30
16.3613
 10
-2.75
 20
-7.80666
 30
16.064
 10
-2.75
 20
-7.27523
 30
15.9132
 10
-2.75
 20
-6.73179
 30
15.8073
 10
-2.75
 20
-6.17636
 30
15.7462
 10
-2.75
 20
-5.61762
 30
15.6867
 10
-2.75
 20
-5.06389
 30
15.6791
 10
-2.75
 20
-4.51518
 30
15.7232
 10
-2.75
 20
-3.42116
 30
15.8079
 10
-2.75
 20
-2.33626
 30
16.1098
 10
-2.75
 20
-1.3
 30
16.5358
  0
SPLINE
  5
CD8
330
A02
100
AcDbEntity
  8
Compound
100
AcDbSpline
210
0
220
0
230
1
 70
8
 71
3
 72
104
 73
100
 74
0
 40
-6e-08
 40
-6e-08
 40
-6e-08
 40
-6e-08
 40
0.0017509
 40
0.0017509
 40
0.0017509
 40
0.00350185
 40
0.00350185
 40
0.00350185
 40
0.00700376
 40
0.00700376
 40
0.00700376
 40
0.0105057
 40
0.0105057
 40
0.0105057
 40
0.0140076
 40
0.0140076
 40
0.0140076
 40
0.0210114
 40
0.0210114
 40
0.0210114
 40
0.0280152
 40
0.0280152
 40
0.0280152
 40
0.0350191
 40
0.0350191
 40
0.0350191
 40
0.0420229
 40
0.0420229
 40
0.0420229
 40
0.0490267
 40
0.0490267
 40
0.0490267
 40
0.0560305
 40
0.0560305
 40
0.0560305
 40
0.0630343
 40
0.0630343
 40
0.0630343
 40
0.0665363
 40
0.0665363
 40
0.0665363
 40
0.0700382
 40
0.0700382
 40
0.0700382
 40
0.0717891
 40
0.0717891
 40
0.0717891
 40
0.0735401
 40
0.0735401
 40
0.0735401
 40
0.075291
 40
0.075291
 40
0.075291
 40
0.077042
 40
0.077042
 40
0.077042
 40
0.0779175
 40
0.0779175
 40
0.0779175
 40
0.0787929
 40
0.0787929
 40
0.0787929
 40
0.0805439
 40
0.0805439
 40
0.0805439
 40
0.0822949
 40
0.0822949
 40
0.0822949
 40
0.0840458
 40
0.0840458
 40
0.0840458
 40
0.0875477
 40
0.0875477
 40
0.0875477
 40
0.0910496
 40
0.0910496
 40
0.0910496
 40
0.0980535
 40
0.0980535
 40
0.0980535
 40
0.101555
 40
0.101555
 40
0.101555
 40
0.103306
 40
0.103306
 40
0.103306
 40
0.105057
 40
0.105057
 40
0.105057
 40
0.106808
 40
0.106808
 40
0.106808
 40
0.108559
 40
0.108559
 40
0.108559
 40
0.11031
 40
0.11031
 40
0.11031
 40
0.112061
 40
0.112061
 40
0.112061
 40
0.112061
 10
0.95
 20
-1.3
 30
-32.5
 10
0.95
 20
-1.89411
 30
-32.467
 10
0.95
 20
-2.45999
 30
-32.323
 10
0.95
 20
-3.01143
 30
-32.1245
 10
0.95
 20
-3.56462
 30
-31.9241
 10
0.95
 20
-4.09783
 30
-31.667
 10
0.95
 20
-4.6056
 30
-31.3853
 10
0.95
 20
-5.62298
 30
-30.8187
 10
0.95
 20
-6.56881
 30
-30.1448
 10
0.95
 20
-7.4824
 30
-29.4225
 10
0.95
 20
-8.39608
 30
-28.6978
 10
0.95
 20
-9.27272
 30
-27.9208
 10
0.95
 20
-10.1139
 30
-27.1237
 10
0.95
 20
-10.9547
 30
-26.324
 10
0.95
 20
-11.7691
 30
-25.5023
 10
0.95
 20
-12.5573
 30
-24.6583
 10
0.95
 20
-14.1366
 30
-22.9729
 10
0.95
 20
-15.6291
 30
-21.2143
 10
0.95
 20
-17.0606
 30
-19.4043
 10
0.95
 20
-18.491
 30
-17.5933
 10
0.95
 20
-19.8627
 30
-15.7328
 10
0.95
 20
-21.1755
 30
-13.8228
 10
0.95
 20
-22.4907
 30
-11.912
 10
0.95
 20
-23.747
 30
-9.9587
 10
0.95
 20
-24.936
 30
-7.9786
 10
0.95
 20
-26.1265
 30
-5.99768
 10
0.95
 20
-27.2506
 30
-3.98349
 10
0.95
 20
-28.3085
 30
-1.93604
 10
0.95
 20
-29.3677
 30
0.11071
 10
0.95
 20
-30.3518
 30
2.19514
 10
0.95
 20
-31.2607
 30
4.31725
 10
0.95
 20
-32.1667
 30
6.43977
 10
0.95
 20
-32.9935
 30
8.60615
 10
0.95
 20
-33.7078
 30
10.8233
 10
0.95
 20
-34.4195
 30
13.0391
 10
0.95
 20
-35.0163
 30
15.2822
 10
0.95
 20
-35.4227
 30
17.5707
 10
0.95
 20
-35.6252
 30
18.7151
 10
0.95
 20
-35.7789
 30
19.8765
 10
0.95
 20
-35.8573
 30
21.0322
 10
0.95
 20
-35.9358
 30
22.1879
 10
0.95
 20
-35.9424
 30
23.3412
 10
0.95
 20
-35.824
 30
24.4902
 10
0.95
 20
-35.7676
 30
25.0648
 10
0.95
 20
-35.6711
 30
25.6381
 10
0.95
 20
-35.5344
 30
26.21
 10
0.95
 20
-35.3942
 30
26.784
 10
0.95
 20
-35.2068
 30
27.3474
 10
0.95
 20
-34.9542
 30
27.8763
 10
0.95
 20
-34.7011
 30
28.4063
 10
0.95
 20
-34.3746
 30
28.9129
 10
0.95
 20
-33.9688
 30
29.3405
 10
0.95
 20
-33.561
 30
29.7716
 10
0.95
 20
-33.0686
 30
30.121
 10
0.95
 20
-32.5313
 30
30.3523
 10
0.95
 20
-32.2589
 30
30.4697
 10
0.95
 20
-31.9774
 30
30.5603
 10
0.95
 20
-31.6869
 30
30.6241
 10
0.95
 20
-31.3988
 30
30.6869
 10
0.95
 20
-31.1074
 30
30.7259
 10
0.95
 20
-30.8125
 30
30.7411
 10
0.95
 20
-30.2198
 30
30.7727
 10
0.95
 20
-29.6273
 30
30.7175
 10
0.95
 20
-29.0521
 30
30.6101
 10
0.95
 20
-28.4749
 30
30.5023
 10
0.95
 20
-27.903
 30
30.3397
 10
0.95
 20
-27.348
 30
30.1452
 10
0.95
 20
-26.794
 30
29.9489
 10
0.95
 20
-26.2534
 30
29.7262
 10
0.95
 20
-25.7263
 30
29.4771
 10
0.95
 20
-24.6704
 30
28.9825
 10
0.95
 20
-23.6571
 30
28.4047
 10
0.95
 20
-22.6656
 30
27.7844
 10
0.95
 20
-21.674
 30
27.1641
 10
0.95
 20
-20.7055
 30
26.4998
 10
0.95
 20
-19.7529
 30
25.8175
 10
0.95
 20
-17.8471
 30
24.454
 10
0.95
 20
-16.0018
 30
23.0072
 10
0.95
 20
-14.1109
 30
21.6232
 10
0.95
 20
-13.165
 30
20.9318
 10
0.95
 20
-12.2057
 30
20.2551
 10
0.95
 20
-11.2127
 30
19.6368
 10
0.95
 20
-10.7171
 30
19.3261
 10
0.95
 20
-10.2102
 30
19.0352
 10
0.95
 20
-9.69198
 30
18.764
 10
0.95
 20
-9.17284
 30
18.4945
 10
0.95
 20
-8.63621
 30
18.2483
 10
0.95
 20
-8.08783
 30
18.0465
 10
0.95
 20
-7.54033
 30
17.8414
 10
0.95
 20
-6.97829
 30
17.69
 10
0.95
 20
-6.40171
 30
17.5924
 10
0.95
 20
-5.82165
 30
17.4971
 10
0.95
 20
-5.22757
 30
17.4706
 10
0.95
 20
-4.65206
 30
17.518
 10
0.95
 20
-4.07408
 30
17.5675
 10
0.95
 20
-3.50354
 30
17.6802
 10
0.95
 20
-2.94046
 30
17.8562
 10
0.95
 20
-2.37751
 30
18.0294
 10
0.95
 20
-1.83394
 30
18.2523
 10
0.95
 20
-1.3
 30
18.5
  0
LINE
  5
CD9
330
A02
100
AcDbEntity
  8
Compound
100
AcDbLine
 10
0.95
 20
-1.3
 30
-32.5
 11
-0.95
 21
-1.3
 31
-32.5
  0
SPLINE
  5
CDA
330
A02
100
AcDbEntity
  8
Compound
100
AcDbSpline
210
0
220
0
230
1
 70
8
 71
3
 72
104
 73
100
 74
0
 40
-6e-08
 40
-6e-08
 40
-6e-08
 40
-6e-08
 40
0.0017622
 40
0.0017622
 40
0.0017622
 40
0.00352447
 40
0.00352447
 40
0.00352447
 40
0.00528673
 40
0.00528673
 40
0.00528673
 40
0.007049
 40
0.007049
 40
0.007049
 40
0.00881126
 40
0.00881126
 40
0.00881126
 40
0.0105735
 40
0.0105735
 40
0.0105735
 40
0.0140981
 40
0.0140981
 40
0.0140981
 40
0.0211471
 40
0.0211471
 40
0.0211471
 40
0.0246716
 40
0.0246716
 40
0.0246716
 40
0.0281962
 40
0.0281962
 40
0.0281962
 40
0.0299584
 40
0.0299584
 40
0.0299584
 40
0.0317207
 40
0.0317207
 40
0.0317207
 40
0.033483
 40
0.033483
 40
0.033483
 40
0.0343641
 40
0.0343641
 40
0.0343641
 40
0.0352452
 40
0.0352452
 40
0.0352452
 40
0.0370075
 40
0.0370075
 40
0.0370075
 40
0.0387698
 40
0.0387698
 40
0.0387698
 40
0.040532
 40
0.040532
 40
0.040532
 40
0.0422943
 40
0.0422943
 40
0.0422943
 40
0.0458188
 40
0.0458188
 40
0.0458188
 40
0.0493434
 40
0.0493434
 40
0.0493434
 40
0.0563924
 40
0.0563924
 40
0.0563924
 40
0.0634415
 40
0.0634415
 40
0.0634415
 40
0.0704905
 40
0.0704905
 40
0.0704905
 40
0.0775396
 40
0.0775396
 40
0.0775396
 40
0.0845886
 40
0.0845886
 40
0.0845886
 40
0.0916377
 40
0.0916377
 40
0.0916377
 40
0.0986868
 40
0.0986868
 40
0.0986868
 40
0.102211
 40
0.102211
 40
0.102211
 40
0.105736
 40
0.105736
 40
0.105736
 40
0.10926
 40
0.10926
 40
0.10926
 40
0.111023
 40
0.111023
 40
0.111023
 40
0.112785
 40
0.112785
 40
0.112785
 40
0.112785
 10
-0.95
 20
-1.3
 30
18.5
 10
-0.95
 20
-1.83289
 30
18.2528
 10
-0.95
 20
-2.37751
 30
18.0294
 10
-0.95
 20
-2.94046
 30
17.8562
 10
-0.95
 20
-3.50354
 30
17.6802
 10
-0.95
 20
-4.07408
 30
17.5675
 10
-0.95
 20
-4.65206
 30
17.518
 10
-0.95
 20
-5.22757
 30
17.4706
 10
-0.95
 20
-5.82165
 30
17.4971
 10
-0.95
 20
-6.40171
 30
17.5924
 10
-0.95
 20
-6.97829
 30
17.69
 10
-0.95
 20
-7.54033
 30
17.8414
 10
-0.95
 20
-8.08783
 30
18.0465
 10
-0.95
 20
-8.63621
 30
18.2483
 10
-0.95
 20
-9.17284
 30
18.4945
 10
-0.95
 20
-9.69198
 30
18.764
 10
-0.95
 20
-10.2102
 30
19.0352
 10
-0.95
 20
-10.7171
 30
19.3261
 10
-0.95
 20
-11.2127
 30
19.6368
 10
-0.95
 20
-12.2057
 30
20.2551
 10
-0.95
 20
-13.165
 30
20.9318
 10
-0.95
 20
-14.1109
 30
21.6232
 10
-0.95
 20
-16.0018
 30
23.0072
 10
-0.95
 20
-17.8471
 30
24.454
 10
-0.95
 20
-19.7529
 30
25.8175
 10
-0.95
 20
-20.7055
 30
26.4998
 10
-0.95
 20
-21.674
 30
27.1641
 10
-0.95
 20
-22.6656
 30
27.7844
 10
-0.95
 20
-23.6571
 30
28.4047
 10
-0.95
 20
-24.6704
 30
28.9825
 10
-0.95
 20
-25.7263
 30
29.4771
 10
-0.95
 20
-26.2534
 30
29.7262
 10
-0.95
 20
-26.794
 30
29.9489
 10
-0.95
 20
-27.348
 30
30.1452
 10
-0.95
 20
-27.903
 30
30.3397
 10
-0.95
 20
-28.4749
 30
30.5023
 10
-0.95
 20
-29.0521
 30
30.6101
 10
-0.95
 20
-29.6273
 30
30.7175
 10
-0.95
 20
-30.2198
 30
30.7727
 10
-0.95
 20
-30.8125
 30
30.7411
 10
-0.95
 20
-31.1074
 30
30.7259
 10
-0.95
 20
-31.3988
 30
30.6869
 10
-0.95
 20
-31.6869
 30
30.6241
 10
-0.95
 20
-31.9774
 30
30.5603
 10
-0.95
 20
-32.2589
 30
30.4697
 10
-0.95
 20
-32.5313
 30
30.3523
 10
-0.95
 20
-33.0686
 30
30.121
 10
-0.95
 20
-33.561
 30
29.7716
 10
-0.95
 20
-33.9688
 30
29.3405
 10
-0.95
 20
-34.3746
 30
28.9129
 10
-0.95
 20
-34.7011
 30
28.4063
 10
-0.95
 20
-34.9542
 30
27.8763
 10
-0.95
 20
-35.2068
 30
27.3474
 10
-0.95
 20
-35.3942
 30
26.784
 10
-0.95
 20
-35.5344
 30
26.21
 10
-0.95
 20
-35.6711
 30
25.6381
 10
-0.95
 20
-35.7676
 30
25.0648
 10
-0.95
 20
-35.824
 30
24.4902
 10
-0.95
 20
-35.9424
 30
23.3412
 10
-0.95
 20
-35.9358
 30
22.1879
 10
-0.95
 20
-35.8573
 30
21.0322
 10
-0.95
 20
-35.7789
 30
19.8765
 10
-0.95
 20
-35.6252
 30
18.7151
 10
-0.95
 20
-35.4227
 30
17.5707
 10
-0.95
 20
-35.0163
 30
15.2822
 10
-0.95
 20
-34.4195
 30
13.0391
 10
-0.95
 20
-33.7078
 30
10.8233
 10
-0.95
 20
-32.9935
 30
8.60615
 10
-0.95
 20
-32.1667
 30
6.43977
 10
-0.95
 20
-31.2607
 30
4.31725
 10
-0.95
 20
-30.3518
 30
2.19514
 10
-0.95
 20
-29.3677
 30
0.11071
 10
-0.95
 20
-28.3085
 30
-1.93604
 10
-0.95
 20
-27.2506
 30
-3.98349
 10
-0.95
 20
-26.1265
 30
-5.99768
 10
-0.95
 20
-24.936
 30
-7.9786
 10
-0.95
 20
-23.747
 30
-9.9587
 10
-0.95
 20
-22.4907
 30
-11.912
 10
-0.95
 20
-21.1755
 30
-13.8228
 10
-0.95
 20
-19.8627
 30
-15.7328
 10
-0.95
 20
-18.491
 30
-17.5933
 10
-0.95
 20
-17.0606
 30
-19.4043
 10
-0.95
 20
-15.6291
 30
-21.2143
 10
-0.95
 20
-14.1366
 30
-22.9729
 10
-0.95
 20
-12.5573
 30
-24.6583
 10
-0.95
 20
-11.7691
 30
-25.5023
 10
-0.95
 20
-10.9547
 30
-26.324
 10
-0.95
 20
-10.1139
 30
-27.1237
 10
-0.95
 20
-9.27272
 30
-27.9208
 10
-0.95
 20
-8.39608
 30
-28.6978
 10
-0.95
 20
-7.4824
 30
-29.4225
 10
-0.95
 20
-6.56881
 30
-30.1448
 10
-0.95
 20
-5.62298
 30
-30.8187
 10
-0.95
 20
-4.6056
 30
-31.3853
 10
-0.95
 20
-4.09783
 30
-31.667
 10
-0.95
 20
-3.56462
 30
-31.9241
 10
-0.95
 20
-3.01143
 30
-32.1245
 10
-0.95
 20
-2.45985
 30
-32.3229
 10
-0.95
 20
-1.89431
 30
-32.4672
 10
-0.95
 20
-1.3
 30
-32.5
  0
LINE
  5
CDB
330
A02
100
AcDbEntity
  8
Compound
100
AcDbLine
 10
0.95
 20
-1.3
 30
18.5
 11
-0.95
 21
-1.3
 31
18.5
  0
LINE
  5
CDC
330
A02
100
AcDbEntity
  8
Compound
100
AcDbLine
 10
0.95
 20
-29.6987
 30
25.3368
 11
-0.95
 21
-29.6987
 31
25.3368
  0
SPLINE
  5
CDD
330
A02
100
AcDbEntity
  8
Compound
100
AcDbSpline
210
0
220
0
230
1
 70
8
 71
3
 72
59
 73
55
 74
0
 40
0.0562207
 40
0.0562207
 40
0.0562207
 40
0.0562207
 40
0.0570993
 40
0.0570993
 40
0.0570993
 40
0.0579779
 40
0.0579779
 40
0.0579779
 40
0.0597351
 40
0.0597351
 40
0.0597351
 40
0.0614923
 40
0.0614923
 40
0.0614923
 40
0.0632495
 40
0.0632495
 40
0.0632495
 40
0.0667639
 40
0.0667639
 40
0.0667639
 40
0.0702784
 40
0.0702784
 40
0.0702784
 40
0.0773072
 40
0.0773072
 40
0.0773072
 40
0.0843361
 40
0.0843361
 40
0.0843361
 40
0.0913649
 40
0.0913649
 40
0.0913649
 40
0.0983938
 40
0.0983938
 40
0.0983938
 40
0.101908
 40
0.101908
 40
0.101908
 40
0.105423
 40
0.105423
 40
0.105423
 40
0.10718
 40
0.10718
 40
0.10718
 40
0.108937
 40
0.108937
 40
0.108937
 40
0.110694
 40
0.110694
 40
0.110694
 40
0.111573
 40
0.111573
 40
0.111573
 40
0.112451
 40
0.112451
 40
0.112451
 40
0.112451
 10
0.95
 20
-29.6987
 30
25.3368
 10
0.95
 20
-29.9568
 30
25.1947
 10
0.95
 20
-30.182
 30
25.0124
 10
0.95
 20
-30.3745
 30
24.7898
 10
0.95
 20
-30.5657
 30
24.5673
 10
0.95
 20
-30.7242
 30
24.3238
 10
0.95
 20
-30.8501
 30
24.0593
 10
0.95
 20
-31.105
 30
23.5313
 10
0.95
 20
-31.2458
 30
22.9692
 10
0.95
 20
-31.3344
 30
22.396
 10
0.95
 20
-31.4217
 30
21.82
 10
0.95
 20
-31.4511
 30
21.241
 10
0.95
 20
-31.4483
 30
20.6667
 10
0.95
 20
-31.4433
 30
20.0916
 10
0.95
 20
-31.4103
 30
19.5175
 10
0.95
 20
-31.3493
 30
18.9444
 10
0.95
 20
-31.2299
 30
17.7958
 10
0.95
 20
-31.022
 30
16.6548
 10
0.95
 20
-30.7679
 30
15.5404
 10
0.95
 20
-30.5105
 30
14.4247
 10
0.95
 20
-30.2108
 30
13.3235
 10
0.95
 20
-29.8689
 30
12.2367
 10
0.95
 20
-29.19
 30
10.0614
 10
0.95
 20
-28.3736
 30
7.93307
 10
0.95
 20
-27.4612
 30
5.8375
 10
0.95
 20
-26.5488
 30
3.74256
 10
0.95
 20
-25.5342
 30
1.67401
 10
0.95
 20
-24.4463
 30
-0.333094
 10
0.95
 20
-23.3586
 30
-2.3428
 10
0.95
 20
-22.189
 30
-4.29964
 10
0.95
 20
-20.9374
 30
-6.20359
 10
0.95
 20
-19.6846
 30
-8.10673
 10
0.95
 20
-18.348
 30
-9.95584
 10
0.95
 20
-16.8891
 30
-11.726
 10
0.95
 20
-16.1596
 30
-12.611
 10
0.95
 20
-15.3972
 30
-13.4776
 10
0.95
 20
-14.6019
 30
-14.3036
 10
0.95
 20
-13.8066
 30
-15.1297
 10
0.95
 20
-12.9776
 30
-15.919
 10
0.95
 20
-12.0914
 30
-16.6459
 10
0.95
 20
-11.6496
 30
-17.0107
 10
0.95
 20
-11.1895
 30
-17.3556
 10
0.95
 20
-10.7113
 30
-17.6806
 10
0.95
 20
-10.2318
 30
-18.0043
 10
0.95
 20
-9.73433
 30
-18.3017
 10
0.95
 20
-9.21558
 30
-18.5501
 10
0.95
 20
-8.69912
 30
-18.7969
 10
0.95
 20
-8.14919
 30
-19.0029
 10
0.95
 20
-7.57486
 30
-19.1027
 10
0.95
 20
-7.29033
 30
-19.1516
 10
0.95
 20
-6.99758
 30
-19.173
 10
0.95
 20
-6.70595
 30
-19.1518
 10
0.95
 20
-6.4156
 30
-19.1329
 10
0.95
 20
-6.13513
 30
-19.066
 10
0.95
 20
-5.86451
 30
-18.951
  0
SPLINE
  5
CDE
330
A02
100
AcDbEntity
  8
Compound
100
AcDbSpline
210
0
220
0
230
1
 70
8
 71
2
 72
6
 73
3
 74
0
 40
0.112451
 40
0.112451
 40
0.112451
 40
0.112657
 40
0.112657
 40
0.112657
 10
0.95
 20
-5.86451
 30
-18.951
 10
0.95
 20
-5.76988
 30
-18.91
 10
0.95
 20
-5.67918
 30
-18.8607
  0
LINE
  5
CDF
330
A02
100
AcDbEntity
  8
Compound
100
AcDbLine
 10
0.95
 20
-5.67918
 30
-18.8607
 11
-0.95
 21
-5.67918
 31
-18.8607
  0
SPLINE
  5
CE0
330
A02
100
AcDbEntity
  8
Compound
100
AcDbSpline
210
0
220
0
230
1
 70
8
 71
3
 72
59
 73
55
 74
0
 40
8.67362e-19
 40
8.67362e-19
 40
8.67362e-19
 40
8.67362e-19
 40
0.00087633
 40
0.00087633
 40
0.00087633
 40
0.00175266
 40
0.00175266
 40
0.00175266
 40
0.00350532
 40
0.00350532
 40
0.00350532
 40
0.00525798
 40
0.00525798
 40
0.00525798
 40
0.00701064
 40
0.00701064
 40
0.00701064
 40
0.010516
 40
0.010516
 40
0.010516
 40
0.0140213
 40
0.0140213
 40
0.0140213
 40
0.0210319
 40
0.0210319
 40
0.0210319
 40
0.0280426
 40
0.0280426
 40
0.0280426
 40
0.0350532
 40
0.0350532
 40
0.0350532
 40
0.0420639
 40
0.0420639
 40
0.0420639
 40
0.0455692
 40
0.0455692
 40
0.0455692
 40
0.0490745
 40
0.0490745
 40
0.0490745
 40
0.0508272
 40
0.0508272
 40
0.0508272
 40
0.0525798
 40
0.0525798
 40
0.0525798
 40
0.0543325
 40
0.0543325
 40
0.0543325
 40
0.0552088
 40
0.0552088
 40
0.0552088
 40
0.0560851
 40
0.0560851
 40
0.0560851
 40
0.0560851
 10
-0.95
 20
-5.67918
 30
-18.8607
 10
-0.95
 20
-5.93716
 30
-19.0014
 10
-0.95
 20
-6.2201
 30
-19.0898
 10
-0.95
 20
-6.51083
 30
-19.131
 10
-0.95
 20
-6.80201
 30
-19.1696
 10
-0.95
 20
-7.09328
 30
-19.1696
 10
-0.95
 20
-7.38466
 30
-19.1309
 10
-0.95
 20
-7.96151
 30
-19.0578
 10
-0.95
 20
-8.5154
 30
-18.8682
 10
-0.95
 20
-9.04695
 30
-18.6287
 10
-0.95
 20
-9.57606
 30
-18.3891
 10
-0.95
 20
-10.075
 30
-18.1001
 10
-0.95
 20
-10.5571
 30
-17.7833
 10
-0.95
 20
-11.0389
 30
-17.4645
 10
-0.95
 20
-11.5051
 30
-17.1222
 10
-0.95
 20
-11.9557
 30
-16.7563
 10
-0.95
 20
-12.8572
 30
-16.0288
 10
-0.95
 20
-13.6913
 30
-15.2416
 10
-0.95
 20
-14.4881
 30
-14.4214
 10
-0.95
 20
-15.2829
 30
-13.5994
 10
-0.95
 20
-16.0444
 30
-12.748
 10
-0.95
 20
-16.7724
 30
-11.867
 10
-0.95
 20
-18.2304
 30
-10.1095
 10
-0.95
 20
-19.5848
 30
-8.24784
 10
-0.95
 20
-20.8529
 30
-6.33173
 10
-0.95
 20
-22.1165
 30
-4.41706
 10
-0.95
 20
-23.2921
 30
-2.45836
 10
-0.95
 20
-24.3798
 30
-0.455639
 10
-0.95
 20
-25.4708
 30
1.5454
 10
-0.95
 20
-26.4747
 30
3.59
 10
-0.95
 20
-27.3916
 30
5.67815
 10
-0.95
 20
-28.3059
 30
7.76726
 10
-0.95
 20
-29.1321
 30
9.90162
 10
-0.95
 20
-29.8262
 30
12.1006
 10
-0.95
 20
-30.1751
 30
13.1995
 10
-0.95
 20
-30.4806
 30
14.3097
 10
-0.95
 20
-30.7428
 30
15.4312
 10
-0.95
 20
-31.0026
 30
16.5534
 10
-0.95
 20
-31.2132
 30
17.6892
 10
-0.95
 20
-31.3371
 30
18.83
 10
-0.95
 20
-31.4009
 30
19.4002
 10
-0.95
 20
-31.4376
 30
19.9729
 10
-0.95
 20
-31.4472
 30
20.5482
 10
-0.95
 20
-31.455
 30
21.1237
 10
-0.95
 20
-31.4306
 30
21.7055
 10
-0.95
 20
-31.3516
 30
22.2771
 10
-0.95
 20
-31.2727
 30
22.8462
 10
-0.95
 20
-31.1381
 30
23.4209
 10
-0.95
 20
-30.9037
 30
23.9444
 10
-0.95
 20
-30.7881
 30
24.2081
 10
-0.95
 20
-30.6404
 30
24.4554
 10
-0.95
 20
-30.4607
 30
24.6863
 10
-0.95
 20
-30.2798
 30
24.9172
 10
-0.95
 20
-30.065
 30
25.1112
 10
-0.95
 20
-29.8164
 30
25.2683
  0
SPLINE
  5
CE1
330
A02
100
AcDbEntity
  8
Compound
100
AcDbSpline
210
0
220
0
230
1
 70
8
 71
1
 72
4
 73
2
 74
0
 40
0.0560851
 40
0.0560851
 40
0.0562207
 40
0.0562207
 10
-0.95
 20
-29.8164
 30
25.2683
 10
-0.95
 20
-29.6987
 30
25.3368
  0
ARC
  5
CE2
330
A02
100
AcDbEntity
  8
Compound
100
AcDbCircle
 10
0.95
 20
-30.3427
 30
27.0274
 40
1.8
100
AcDbArc
 50
-1.13086e-13
 51
90
  0
SPLINE
  5
CE3
330
A02
100
AcDbEntity
  8
Compound
100
AcDbSpline
210
0
220
0
230
1
 70
8
 71
3
 72
56
 73
52
 74
0
 40
0.00036541
 40
0.00036541
 40
0.00036541
 40
0.00036541
 40
0.0013347
 40
0.0013347
 40
0.0013347
 40
0.00230399
 40
0.00230399
 40
0.00230399
 40
0.00424257
 40
0.00424257
 40
0.00424257
 40
0.00618115
 40
0.00618115
 40
0.00618115
 40
0.00811973
 40
0.00811973
 40
0.00811973
 40
0.0119969
 40
0.0119969
 40
0.0119969
 40
0.0158741
 40
0.0158741
 40
0.0158741
 40
0.0236284
 40
0.0236284
 40
0.0236284
 40
0.0313827
 40
0.0313827
 40
0.0313827
 40
0.039137
 40
0.039137
 40
0.039137
 40
0.0468914
 40
0.0468914
 40
0.0468914
 40
0.0507685
 40
0.0507685
 40
0.0507685
 40
0.0546457
 40
0.0546457
 40
0.0546457
 40
0.0565843
 40
0.0565843
 40
0.0565843
 40
0.0585228
 40
0.0585228
 40
0.0585228
 40
0.0604614
 40
0.0604614
 40
0.0604614
 40
0.0624
 40
0.0624
 40
0.0624
 40
0.0624
 10
2.75
 20
-5.14815
 30
-20.6023
 10
2.75
 20
-5.44501
 30
-20.7303
 10
2.75
 20
-5.74969
 30
-20.8232
 10
2.75
 20
-6.06219
 30
-20.8809
 10
2.75
 20
-6.3766
 30
-20.9389
 10
2.75
 20
-6.69547
 30
-20.9651
 10
2.75
 20
-7.01879
 30
-20.9593
 10
2.75
 20
-7.65959
 30
-20.9487
 10
2.75
 20
-8.29111
 30
-20.8195
 10
2.75
 20
-8.90086
 30
-20.6179
 10
2.75
 20
-9.50772
 30
-20.4169
 10
2.75
 20
-10.0825
 30
-20.1486
 10
2.75
 20
-10.6377
 30
-19.8394
 10
2.75
 20
-11.1929
 30
-19.5303
 10
2.75
 20
-11.7302
 30
-19.1777
 10
2.75
 20
-12.2439
 30
-18.8038
 10
2.75
 20
-13.2714
 30
-18.056
 10
2.75
 20
-14.2182
 30
-17.2198
 10
2.75
 20
-15.1215
 30
-16.336
 10
2.75
 20
-16.0241
 30
-15.4525
 10
2.75
 20
-16.8835
 30
-14.517
 10
2.75
 20
-17.708
 30
-13.5508
 10
2.75
 20
-19.3534
 30
-11.6195
 10
2.75
 20
-20.8462
 30
-9.58971
 10
2.75
 20
-22.2405
 30
-7.49621
 10
2.75
 20
-23.6319
 30
-5.40086
 10
2.75
 20
-24.9253
 30
-3.24229
 10
2.75
 20
-26.1209
 30
-1.0205
 10
2.75
 20
-27.3173
 30
1.19925
 10
2.75
 20
-28.4253
 30
3.48988
 10
2.75
 20
-29.4079
 30
5.80905
 10
2.75
 20
-30.3898
 30
8.13088
 10
2.75
 20
-31.2575
 30
10.4916
 10
2.75
 20
-31.9491
 30
12.9122
 10
2.75
 20
-32.2941
 30
14.1227
 10
2.75
 20
-32.5941
 30
15.3486
 10
2.75
 20
-32.8246
 30
16.5982
 10
2.75
 20
-33.0545
 30
17.8505
 10
2.75
 20
-33.2163
 30
19.1208
 10
2.75
 20
-33.2446
 30
20.3872
 10
2.75
 20
-33.2617
 30
21.0213
 10
2.75
 20
-33.2348
 30
21.6569
 10
2.75
 20
-33.1639
 30
22.2939
 10
2.75
 20
-33.0896
 30
22.9311
 10
2.75
 20
-32.9626
 30
23.5579
 10
2.75
 20
-32.7527
 30
24.1603
 10
2.75
 20
-32.5421
 30
24.765
 10
2.75
 20
-32.2443
 30
25.3456
 10
2.75
 20
-31.8404
 30
25.843
 10
2.75
 20
-31.4341
 30
26.3447
 10
2.75
 20
-30.9298
 30
26.7518
 10
2.75
 20
-30.3427
 30
27.0274
  0
ARC
  5
CE4
330
A02
100
AcDbEntity
  8
Compound
100
AcDbCircle
 10
0.95
 20
-5.14815
 30
-20.6023
 40
1.8
100
AcDbArc
 50
-90
 51
0
  0
SPLINE
  5
CE5
330
A02
100
AcDbEntity
  8
Compound
100
AcDbSpline
210
0
220
0
230
1
 70
8
 71
3
 72
59
 73
55
 74
0
 40
0.0562207
 40
0.0562207
 40
0.0562207
 40
0.0562207
 40
0.0570993
 40
0.0570993
 40
0.0570993
 40
0.0579779
 40
0.0579779
 40
0.0579779
 40
0.0597351
 40
0.0597351
 40
0.0597351
 40
0.0614923
 40
0.0614923
 40
0.0614923
 40
0.0632495
 40
0.0632495
 40
0.0632495
 40
0.0667639
 40
0.0667639
 40
0.0667639
 40
0.0702784
 40
0.0702784
 40
0.0702784
 40
0.0773072
 40
0.0773072
 40
0.0773072
 40
0.0843361
 40
0.0843361
 40
0.0843361
 40
0.0913649
 40
0.0913649
 40
0.0913649
 40
0.0983938
 40
0.0983938
 40
0.0983938
 40
0.101908
 40
0.101908
 40
0.101908
 40
0.105423
 40
0.105423
 40
0.105423
 40
0.10718
 40
0.10718
 40
0.10718
 40
0.108937
 40
0.108937
 40
0.108937
 40
0.110694
 40
0.110694
 40
0.110694
 40
0.111573
 40
0.111573
 40
0.111573
 40
0.112451
 40
0.112451
 40
0.112451
 40
0.112451
 10
0.95
 20
-29.6987
 30
25.3368
 10
0.95
 20
-29.9568
 30
25.1947
 10
0.95
 20
-30.182
 30
25.0124
 10
0.95
 20
-30.3745
 30
24.7898
 10
0.95
 20
-30.5657
 30
24.5673
 10
0.95
 20
-30.7242
 30
24.3238
 10
0.95
 20
-30.8501
 30
24.0593
 10
0.95
 20
-31.105
 30
23.5313
 10
0.95
 20
-31.2458
 30
22.9692
 10
0.95
 20
-31.3344
 30
22.396
 10
0.95
 20
-31.4217
 30
21.82
 10
0.95
 20
-31.4511
 30
21.241
 10
0.95
 20
-31.4483
 30
20.6667
 10
0.95
 20
-31.4433
 30
20.0916
 10
0.95
 20
-31.4103
 30
19.5175
 10
0.95
 20
-31.3493
 30
18.9444
 10
0.95
 20
-31.2299
 30
17.7958
 10
0.95
 20
-31.022
 30
16.6548
 10
0.95
 20
-30.7679
 30
15.5404
 10
0.95
 20
-30.5105
 30
14.4247
 10
0.95
 20
-30.2108
 30
13.3235
 10
0.95
 20
-29.8689
 30
12.2367
 10
0.95
 20
-29.19
 30
10.0614
 10
0.95
 20
-28.3736
 30
7.93307
 10
0.95
 20
-27.4612
 30
5.8375
 10
0.95
 20
-26.5488
 30
3.74256
 10
0.95
 20
-25.5342
 30
1.67401
 10
0.95
 20
-24.4463
 30
-0.333094
 10
0.95
 20
-23.3586
 30
-2.3428
 10
0.95
 20
-22.189
 30
-4.29964
 10
0.95
 20
-20.9374
 30
-6.20359
 10
0.95
 20
-19.6846
 30
-8.10673
 10
0.95
 20
-18.348
 30
-9.95584
 10
0.95
 20
-16.8891
 30
-11.726
 10
0.95
 20
-16.1596
 30
-12.611
 10
0.95
 20
-15.3972
 30
-13.4776
 10
0.95
 20
-14.6019
 30
-14.3036
 10
0.95
 20
-13.8066
 30
-15.1297
 10
0.95
 20
-12.9776
 30
-15.919
 10
0.95
 20
-12.0914
 30
-16.6459
 10
0.95
 20
-11.6496
 30
-17.0107
 10
0.95
 20
-11.1895
 30
-17.3556
 10
0.95
 20
-10.7113
 30
-17.6806
 10
0.95
 20
-10.2318
 30
-18.0043
 10
0.95
 20
-9.73433
 30
-18.3017
 10
0.95
 20
-9.21558
 30
-18.5501
 10
0.95
 20
-8.69912
 30
-18.7969
 10
0.95
 20
-8.14919
 30
-19.0029
 10
0.95
 20
-7.57486
 30
-19.1027
 10
0.95
 20
-7.29033
 30
-19.1516
 10
0.95
 20
-6.99758
 30
-19.173
 10
0.95
 20
-6.70595
 30
-19.1518
 10
0.95
 20
-6.4156
 30
-19.1329
 10
0.95
 20
-6.13513
 30
-19.066
 10
0.95
 20
-5.86451
 30
-18.951
  0
SPLINE
  5
CE6
330
A02
100
AcDbEntity
  8
Compound
100
AcDbSpline
210
0
220
0
230
1
 70
8
 71
1
 72
4
 73
2
 74
0
 40
0.0560851
 40
0.0560851
 40
0.0562207
 40
0.0562207
 10
0.95
 20
-29.5773
 30
25.3983
 10
0.95
 20
-29.6987
 30
25.3368
  0
ARC
  5
CE7
330
A02
100
AcDbEntity
  8
Compound
100
AcDbCircle
 10
-0.95
 20
-30.767
 30
26.7968
 40
1.8
100
AcDbArc
 50
90
 51
-180
  0
SPLINE
  5
CE8
330
A02
100
AcDbEntity
  8
Compound
100
AcDbSpline
210
0
220
0
230
1
 70
8
 71
3
 72
56
 73
52
 74
0
 40
0.00036541
 40
0.00036541
 40
0.00036541
 40
0.00036541
 40
0.0013347
 40
0.0013347
 40
0.0013347
 40
0.00230399
 40
0.00230399
 40
0.00230399
 40
0.00424257
 40
0.00424257
 40
0.00424257
 40
0.00618115
 40
0.00618115
 40
0.00618115
 40
0.00811973
 40
0.00811973
 40
0.00811973
 40
0.0119969
 40
0.0119969
 40
0.0119969
 40
0.0158741
 40
0.0158741
 40
0.0158741
 40
0.0236284
 40
0.0236284
 40
0.0236284
 40
0.0313827
 40
0.0313827
 40
0.0313827
 40
0.039137
 40
0.039137
 40
0.039137
 40
0.0468914
 40
0.0468914
 40
0.0468914
 40
0.0507685
 40
0.0507685
 40
0.0507685
 40
0.0546457
 40
0.0546457
 40
0.0546457
 40
0.0565843
 40
0.0565843
 40
0.0565843
 40
0.0585228
 40
0.0585228
 40
0.0585228
 40
0.0604614
 40
0.0604614
 40
0.0604614
 40
0.0624
 40
0.0624
 40
0.0624
 40
0.0624
 10
-2.75
 20
-4.50666
 30
-20.2537
 10
-2.75
 20
-4.23778
 30
-20.0742
 10
-2.75
 20
-3.99412
 30
-19.8691
 10
-2.75
 20
-3.77568
 30
-19.6383
 10
-2.75
 20
-3.55596
 30
-19.406
 10
-2.75
 20
-3.36058
 30
-19.1527
 10
-2.75
 20
-3.18954
 30
-18.8782
 10
-2.75
 20
-2.84984
 30
-18.3348
 10
-2.75
 20
-2.61472
 30
-17.7346
 10
-2.75
 20
-2.4522
 30
-17.1133
 10
-2.75
 20
-2.29074
 30
-16.4947
 10
-2.75
 20
-2.20322
 30
-15.8665
 10
-2.75
 20
-2.16059
 30
-15.2325
 10
-2.75
 20
-2.11796
 30
-14.5984
 10
-2.75
 20
-2.12155
 30
-13.9558
 10
-2.75
 20
-2.15581
 30
-13.3213
 10
-2.75
 20
-2.22432
 30
-12.0524
 10
-2.75
 20
-2.41094
 30
-10.803
 10
-2.75
 20
-2.66119
 30
-9.5643
 10
-2.75
 20
-2.9115
 30
-8.32638
 10
-2.75
 20
-3.22902
 30
-7.09631
 10
-2.75
 20
-3.59118
 30
-5.87891
 10
-2.75
 20
-4.31666
 30
-3.44767
 10
-2.75
 20
-5.20776
 30
-1.09082
 10
-2.75
 20
-6.20596
 30
1.21791
 10
-2.75
 20
-7.20726
 30
3.52525
 10
-2.75
 20
-8.31487
 30
5.78483
 10
-2.75
 20
-9.52879
 30
7.99665
 10
-2.75
 20
-10.7405
 30
10.2081
 10
-2.75
 20
-12.0599
 30
12.3839
 10
-2.75
 20
-13.4713
 30
14.4699
 10
-2.75
 20
-14.8854
 30
16.5569
 10
-2.75
 20
-16.3942
 30
18.5692
 10
-2.75
 20
-18.0492
 30
20.4662
 10
-2.75
 20
-18.8773
 30
21.4142
 10
-2.75
 20
-19.7427
 30
22.3329
 10
-2.75
 20
-20.6658
 30
23.206
 10
-2.75
 20
-21.5916
 30
24.0801
 10
-2.75
 20
-22.5694
 30
24.9069
 10
-2.75
 20
-23.6167
 30
25.6196
 10
-2.75
 20
-24.1394
 30
25.9789
 10
-2.75
 20
-24.6874
 30
26.302
 10
-2.75
 20
-25.2605
 30
26.5891
 10
-2.75
 20
-25.8356
 30
26.8734
 10
-2.75
 20
-26.4306
 30
27.1078
 10
-2.75
 20
-27.0502
 30
27.2593
 10
-2.75
 20
-27.6722
 30
27.4116
 10
-2.75
 20
-28.3214
 30
27.4776
 10
-2.75
 20
-28.9585
 30
27.4092
 10
-2.75
 20
-29.6004
 30
27.3412
 10
-2.75
 20
-30.2164
 30
27.1395
 10
-2.75
 20
-30.767
 30
26.7968
  0
ARC
  5
CE9
330
A02
100
AcDbEntity
  8
Compound
100
AcDbCircle
 10
-0.95
 20
-4.50666
 30
-20.2537
 40
1.8
100
AcDbArc
 50
180
 51
-90
  0
SPLINE
  5
CEA
330
A02
100
AcDbEntity
  8
Compound
100
AcDbSpline
210
0
220
0
230
1
 70
8
 71
3
 72
59
 73
55
 74
0
 40
0.0562207
 40
0.0562207
 40
0.0562207
 40
0.0562207
 40
0.0570993
 40
0.0570993
 40
0.0570993
 40
0.0579779
 40
0.0579779
 40
0.0579779
 40
0.0597351
 40
0.0597351
 40
0.0597351
 40
0.0614923
 40
0.0614923
 40
0.0614923
 40
0.0632495
 40
0.0632495
 40
0.0632495
 40
0.0667639
 40
0.0667639
 40
0.0667639
 40
0.0702784
 40
0.0702784
 40
0.0702784
 40
0.0773072
 40
0.0773072
 40
0.0773072
 40
0.0843361
 40
0.0843361
 40
0.0843361
 40
0.0913649
 40
0.0913649
 40
0.0913649
 40
0.0983938
 40
0.0983938
 40
0.0983938
 40
0.101908
 40
0.101908
 40
0.101908
 40
0.105423
 40
0.105423
 40
0.105423
 40
0.10718
 40
0.10718
 40
0.10718
 40
0.108937
 40
0.108937
 40
0.108937
 40
0.110694
 40
0.110694
 40
0.110694
 40
0.111573
 40
0.111573
 40
0.111573
 40
0.112451
 40
0.112451
 40
0.112451
 40
0.112451
 10
-0.95
 20
-29.6987
 30
25.3368
 10
-0.95
 20
-29.4392
 30
25.476
 10
-0.95
 20
-29.1637
 30
25.5658
 10
-0.95
 20
-28.8722
 30
25.6063
 10
-0.95
 20
-28.5814
 30
25.6457
 10
-0.95
 20
-28.2909
 30
25.6462
 10
-0.95
 20
-28.0005
 30
25.6079
 10
-0.95
 20
-27.4188
 30
25.5345
 10
-0.95
 20
-26.8706
 30
25.3469
 10
-0.95
 20
-26.3414
 30
25.1095
 10
-0.95
 20
-25.8106
 30
24.8694
 10
-0.95
 20
-25.3087
 30
24.5792
 10
-0.95
 20
-24.8284
 30
24.2644
 10
-0.95
 20
-24.3485
 30
23.9473
 10
-0.95
 20
-23.8847
 30
23.6073
 10
-0.95
 20
-23.4371
 30
23.2444
 10
-0.95
 20
-22.5382
 30
22.5194
 10
-0.95
 20
-21.6939
 30
21.7242
 10
-0.95
 20
-20.897
 30
20.9048
 10
-0.95
 20
-20.1009
 30
20.0819
 10
-0.95
 20
-19.3399
 30
19.2314
 10
-0.95
 20
-18.614
 30
18.3533
 10
-0.95
 20
-17.158
 30
16.6003
 10
-0.95
 20
-15.8163
 30
14.7575
 10
-0.95
 20
-14.5542
 30
12.8519
 10
-0.95
 20
-13.2927
 30
10.9467
 10
-0.95
 20
-12.1089
 30
8.9701
 10
-0.95
 20
-11.0165
 30
6.96546
 10
-0.95
 20
-9.92189
 30
4.95953
 10
-0.95
 20
-8.91619
 30
2.91361
 10
-0.95
 20
-7.99943
 30
0.827697
 10
-0.95
 20
-7.08404
 30
-1.25883
 10
-0.95
 20
-6.25952
 30
-3.38621
 10
-0.95
 20
-5.56788
 30
-5.57334
 10
-0.95
 20
-5.22206
 30
-6.6669
 10
-0.95
 20
-4.90966
 30
-7.77799
 10
-0.95
 20
-4.64916
 30
-8.89471
 10
-0.95
 20
-4.38866
 30
-10.0114
 10
-0.95
 20
-4.17733
 30
-11.1364
 10
-0.95
 20
-4.04946
 30
-12.2754
 10
-0.95
 20
-3.98371
 30
-12.8446
 10
-0.95
 20
-3.94455
 30
-13.4183
 10
-0.95
 20
-3.93198
 30
-13.9964
 10
-0.95
 20
-3.92123
 30
-14.5748
 10
-0.95
 20
-3.94227
 30
-15.154
 10
-0.95
 20
-4.01603
 30
-15.7244
 10
-0.95
 20
-4.08994
 30
-16.292
 10
-0.95
 20
-4.21623
 30
-16.8655
 10
-0.95
 20
-4.44493
 30
-17.4017
 10
-0.95
 20
-4.55866
 30
-17.667
 10
-0.95
 20
-4.69997
 30
-17.9243
 10
-0.95
 20
-4.87635
 30
-18.1575
 10
-0.95
 20
-5.05016
 30
-18.3909
 10
-0.95
 20
-5.2589
 30
-18.5898
 10
-0.95
 20
-5.50257
 30
-18.7543
  0
SPLINE
  5
CEB
330
A02
100
AcDbEntity
  8
Compound
100
AcDbSpline
210
0
220
0
230
1
 70
8
 71
1
 72
4
 73
2
 74
0
 40
0.0560851
 40
0.0560851
 40
0.0562207
 40
0.0562207
 10
-0.95
 20
-29.8164
 30
25.2683
 10
-0.95
 20
-29.6987
 30
25.3368
  0
SPLINE
  5
CEC
330
A02
100
AcDbEntity
  8
Compound
100
AcDbSpline
210
0
220
0
230
1
 70
8
 71
3
 72
17
 73
13
 74
0
 40
0
 40
0
 40
0
 40
0
 40
0.000734963
 40
0.000734963
 40
0.000734963
 40
0.00146993
 40
0.00146993
 40
0.00146993
 40
0.00220489
 40
0.00220489
 40
0.00220489
 40
0.00293985
 40
0.00293985
 40
0.00293985
 40
0.00293985
 10
-2.75
 20
-1.3
 30
16.5358
 10
-2.74991
 20
-1.3
 30
16.7849
 10
-2.70715
 20
-1.3
 30
17.0261
 10
-2.62172
 20
-1.3
 30
17.2594
 10
-2.53652
 20
-1.3
 30
17.4926
 10
-2.41215
 20
-1.3
 30
17.7033
 10
-2.24861
 20
-1.3
 30
17.8917
 10
-2.08651
 20
-1.3
 30
18.0769
 10
-1.89012
 20
-1.3
 30
18.2291
 10
-1.66584
 20
-1.3
 30
18.3365
 10
-1.44467
 20
-1.3
 30
18.4423
 10
-1.20066
 20
-1.3
 30
18.4999
 10
-0.95
 20
-1.3
 30
18.5
  0
SPLINE
  5
CED
330
A02
100
AcDbEntity
  8
Compound
100
AcDbSpline
210
0
220
0
230
1
 70
8
 71
3
 72
92
 73
88
 74
0
 40
0
 40
0
 40
0
 40
0
 40
0.00166832
 40
0.00166832
 40
0.00166832
 40
0.00333664
 40
0.00333664
 40
0.00333664
 40
0.00667327
 40
0.00667327
 40
0.00667327
 40
0.0133465
 40
0.0133465
 40
0.0133465
 40
0.0200198
 40
0.0200198
 40
0.0200198
 40
0.0266931
 40
0.0266931
 40
0.0266931
 40
0.0333664
 40
0.0333664
 40
0.0333664
 40
0.0400396
 40
0.0400396
 40
0.0400396
 40
0.0467129
 40
0.0467129
 40
0.0467129
 40
0.0533862
 40
0.0533862
 40
0.0533862
 40
0.0600594
 40
0.0600594
 40
0.0600594
 40
0.0633961
 40
0.0633961
 40
0.0633961
 40
0.0667327
 40
0.0667327
 40
0.0667327
 40
0.068401
 40
0.068401
 40
0.068401
 40
0.0700694
 40
0.0700694
 40
0.0700694
 40
0.0717377
 40
0.0717377
 40
0.0717377
 40
0.0725718
 40
0.0725718
 40
0.0725718
 40
0.073406
 40
0.073406
 40
0.073406
 40
0.0742401
 40
0.0742401
 40
0.0742401
 40
0.0750743
 40
0.0750743
 40
0.0750743
 40
0.0767426
 40
0.0767426
 40
0.0767426
 40
0.0800793
 40
0.0800793
 40
0.0800793
 40
0.0867525
 40
0.0867525
 40
0.0867525
 40
0.0934258
 40
0.0934258
 40
0.0934258
 40
0.0967624
 40
0.0967624
 40
0.0967624
 40
0.100099
 40
0.100099
 40
0.100099
 40
0.101767
 40
0.101767
 40
0.101767
 40
0.103436
 40
0.103436
 40
0.103436
 40
0.106772
 40
0.106772
 40
0.106772
 40
0.106772
 10
-2.75
 20
-1.3
 30
-30.6957
 10
-2.75
 20
-1.86195
 30
-30.6422
 10
-2.75
 20
-2.38831
 30
-30.4534
 10
-2.75
 20
-2.90139
 30
-30.2287
 10
-2.75
 20
-3.41247
 30
-30.0013
 10
-2.75
 20
-3.89478
 30
-29.7312
 10
-2.75
 20
-4.36257
 30
-29.4394
 10
-2.75
 20
-5.2974
 30
-28.8547
 10
-2.75
 20
-6.17455
 30
-28.1841
 10
-2.75
 20
-7.0247
 30
-27.4733
 10
-2.75
 20
-8.72317
 30
-26.0457
 10
-2.75
 20
-10.2752
 30
-24.4866
 10
-2.75
 20
-11.7565
 30
-22.8743
 10
-2.75
 20
-13.2366
 30
-21.2593
 10
-2.75
 20
-14.6406
 30
-19.5802
 10
-2.75
 20
-15.9894
 30
-17.8546
 10
-2.75
 20
-17.3372
 30
-16.1282
 10
-2.75
 20
-18.6315
 30
-14.3567
 10
-2.75
 20
-19.8725
 30
-12.5403
 10
-2.75
 20
-21.1155
 30
-10.7231
 10
-2.75
 20
-22.3037
 30
-8.86858
 10
-2.75
 20
-23.4306
 30
-6.98895
 10
-2.75
 20
-24.5589
 30
-5.10864
 10
-2.75
 20
-25.6265
 30
-3.19788
 10
-2.75
 20
-26.6333
 30
-1.25669
 10
-2.75
 20
-27.6414
 30
0.683911
 10
-2.75
 20
-28.5811
 30
2.65884
 10
-2.75
 20
-29.4523
 30
4.66811
 10
-2.75
 20
-30.3216
 30
6.67834
 10
-2.75
 20
-31.1175
 30
8.72537
 10
-2.75
 20
-31.8137
 30
10.8224
 10
-2.75
 20
-32.5089
 30
12.9201
 10
-2.75
 20
-33.1003
 30
15.0431
 10
-2.75
 20
-33.5239
 30
17.2056
 10
-2.75
 20
-33.7347
 30
18.2857
 10
-2.75
 20
-33.9035
 30
19.3823
 10
-2.75
 20
-34.007
 30
20.482
 10
-2.75
 20
-34.11
 30
21.5799
 10
-2.75
 20
-34.15
 30
22.6759
 10
-2.75
 20
-34.0785
 30
23.7687
 10
-2.75
 20
-34.0456
 30
24.3151
 10
-2.75
 20
-33.976
 30
24.8605
 10
-2.75
 20
-33.8697
 30
25.4048
 10
-2.75
 20
-33.7601
 30
25.9493
 10
-2.75
 20
-33.604
 30
26.498
 10
-2.75
 20
-33.3743
 30
27.0053
 10
-2.75
 20
-33.1438
 30
27.513
 10
-2.75
 20
-32.8294
 30
28.0016
 10
-2.75
 20
-32.3875
 30
28.3556
 10
-2.75
 20
-32.1657
 30
28.5328
 10
-2.75
 20
-31.9217
 30
28.6689
 10
-2.75
 20
-31.6557
 30
28.764
 10
-2.75
 20
-31.3884
 30
28.8599
 10
-2.75
 20
-31.1109
 30
28.9126
 10
-2.75
 20
-30.8322
 30
28.9357
 10
-2.75
 20
-30.551
 30
28.9572
 10
-2.75
 20
-30.2701
 30
28.9542
 10
-2.75
 20
-29.9895
 30
28.9266
 10
-2.75
 20
-29.7109
 30
28.8997
 10
-2.75
 20
-29.4352
 30
28.8563
 10
-2.75
 20
-29.1623
 30
28.7963
 10
-2.75
 20
-28.6163
 30
28.6782
 10
-2.75
 20
-28.0778
 30
28.5049
 10
-2.75
 20
-27.5584
 30
28.3048
 10
-2.75
 20
-26.5202
 30
27.9032
 10
-2.75
 20
-25.5376
 30
27.3938
 10
-2.75
 20
-24.579
 30
26.8377
 10
-2.75
 20
-22.6621
 30
25.7194
 10
-2.75
 20
-20.8502
 30
24.4107
 10
-2.75
 20
-19.0672
 30
23.0841
 10
-2.75
 20
-17.282
 30
21.7558
 10
-2.75
 20
-15.5277
 30
20.3849
 10
-2.75
 20
-13.6974
 30
19.1187
 10
-2.75
 20
-12.7815
 30
18.4866
 10
-2.75
 20
-11.847
 30
17.8833
 10
-2.75
 20
-10.8719
 30
17.3529
 10
-2.75
 20
-9.89912
 30
16.8234
 10
-2.75
 20
-8.8687
 30
16.3613
 10
-2.75
 20
-7.80666
 30
16.064
 10
-2.75
 20
-7.27523
 30
15.9132
 10
-2.75
 20
-6.73179
 30
15.8073
 10
-2.75
 20
-6.17636
 30
15.7462
 10
-2.75
 20
-5.61762
 30
15.6867
 10
-2.75
 20
-5.06389
 30
15.6791
 10
-2.75
 20
-4.51518
 30
15.7232
 10
-2.75
 20
-3.42116
 30
15.8079
 10
-2.75
 20
-2.33626
 30
16.1098
 10
-2.75
 20
-1.3
 30
16.5358
  0
SPLINE
  5
CEE
330
A02
100
AcDbEntity
  8
Compound
100
AcDbSpline
210
0
220
0
230
1
 70
8
 71
3
 72
14
 73
10
 74
0
 40
0
 40
0
 40
0
 40
0
 40
0.000703863
 40
0.000703863
 40
0.000703863
 40
0.00140773
 40
0.00140773
 40
0.00140773
 40
0.00281545
 40
0.00281545
 40
0.00281545
 40
0.00281545
 10
-0.95
 20
-1.3
 30
-32.5
 10
-1.18856
 20
-1.3
 30
-32.4996
 10
-1.41843
 20
-1.3
 30
-32.4538
 10
-1.6396
 20
-1.3
 30
-32.3625
 10
-1.85655
 20
-1.3
 30
-32.2727
 10
-2.05604
 20
-1.3
 30
-32.139
 10
-2.2233
 20
-1.3
 30
-31.9714
 10
-2.55775
 20
-1.3
 30
-31.6372
 10
-2.75119
 20
-1.3
 30
-31.1727
 10
-2.75
 20
-1.3
 30
-30.6957
  0
SPLINE
  5
CEF
330
A02
100
AcDbEntity
  8
Compound
100
AcDbSpline
210
0
220
0
230
1
 70
8
 71
3
 72
104
 73
100
 74
0
 40
-6e-08
 40
-6e-08
 40
-6e-08
 40
-6e-08
 40
0.0017622
 40
0.0017622
 40
0.0017622
 40
0.00352447
 40
0.00352447
 40
0.00352447
 40
0.00528673
 40
0.00528673
 40
0.00528673
 40
0.007049
 40
0.007049
 40
0.007049
 40
0.00881126
 40
0.00881126
 40
0.00881126
 40
0.0105735
 40
0.0105735
 40
0.0105735
 40
0.0140981
 40
0.0140981
 40
0.0140981
 40
0.0211471
 40
0.0211471
 40
0.0211471
 40
0.0246716
 40
0.0246716
 40
0.0246716
 40
0.0281962
 40
0.0281962
 40
0.0281962
 40
0.0299584
 40
0.0299584
 40
0.0299584
 40
0.0317207
 40
0.0317207
 40
0.0317207
 40
0.033483
 40
0.033483
 40
0.033483
 40
0.0343641
 40
0.0343641
 40
0.0343641
 40
0.0352452
 40
0.0352452
 40
0.0352452
 40
0.0370075
 40
0.0370075
 40
0.0370075
 40
0.0387698
 40
0.0387698
 40
0.0387698
 40
0.040532
 40
0.040532
 40
0.040532
 40
0.0422943
 40
0.0422943
 40
0.0422943
 40
0.0458188
 40
0.0458188
 40
0.0458188
 40
0.0493434
 40
0.0493434
 40
0.0493434
 40
0.0563924
 40
0.0563924
 40
0.0563924
 40
0.0634415
 40
0.0634415
 40
0.0634415
 40
0.0704905
 40
0.0704905
 40
0.0704905
 40
0.0775396
 40
0.0775396
 40
0.0775396
 40
0.0845886
 40
0.0845886
 40
0.0845886
 40
0.0916377
 40
0.0916377
 40
0.0916377
 40
0.0986868
 40
0.0986868
 40
0.0986868
 40
0.102211
 40
0.102211
 40
0.102211
 40
0.105736
 40
0.105736
 40
0.105736
 40
0.10926
 40
0.10926
 40
0.10926
 40
0.111023
 40
0.111023
 40
0.111023
 40
0.112785
 40
0.112785
 40
0.112785
 40
0.112785
 10
-0.95
 20
-1.3
 30
18.5
 10
-0.95
 20
-1.83289
 30
18.2528
 10
-0.95
 20
-2.37751
 30
18.0294
 10
-0.95
 20
-2.94046
 30
17.8562
 10
-0.95
 20
-3.50354
 30
17.6802
 10
-0.95
 20
-4.07408
 30
17.5675
 10
-0.95
 20
-4.65206
 30
17.518
 10
-0.95
 20
-5.22757
 30
17.4706
 10
-0.95
 20
-5.82165
 30
17.4971
 10
-0.95
 20
-6.40171
 30
17.5924
 10
-0.95
 20
-6.97829
 30
17.69
 10
-0.95
 20
-7.54033
 30
17.8414
 10
-0.95
 20
-8.08783
 30
18.0465
 10
-0.95
 20
-8.63621
 30
18.2483
 10
-0.95
 20
-9.17284
 30
18.4945
 10
-0.95
 20
-9.69198
 30
18.764
 10
-0.95
 20
-10.2102
 30
19.0352
 10
-0.95
 20
-10.7171
 30
19.3261
 10
-0.95
 20
-11.2127
 30
19.6368
 10
-0.95
 20
-12.2057
 30
20.2551
 10
-0.95
 20
-13.165
 30
20.9318
 10
-0.95
 20
-14.1109
 30
21.6232
 10
-0.95
 20
-16.0018
 30
23.0072
 10
-0.95
 20
-17.8471
 30
24.454
 10
-0.95
 20
-19.7529
 30
25.8175
 10
-0.95
 20
-20.7055
 30
26.4998
 10
-0.95
 20
-21.674
 30
27.1641
 10
-0.95
 20
-22.6656
 30
27.7844
 10
-0.95
 20
-23.6571
 30
28.4047
 10
-0.95
 20
-24.6704
 30
28.9825
 10
-0.95
 20
-25.7263
 30
29.4771
 10
-0.95
 20
-26.2534
 30
29.7262
 10
-0.95
 20
-26.794
 30
29.9489
 10
-0.95
 20
-27.348
 30
30.1452
 10
-0.95
 20
-27.903
 30
30.3397
 10
-0.95
 20
-28.4749
 30
30.5023
 10
-0.95
 20
-29.0521
 30
30.6101
 10
-0.95
 20
-29.6273
 30
30.7175
 10
-0.95
 20
-30.2198
 30
30.7727
 10
-0.95
 20
-30.8125
 30
30.7411
 10
-0.95
 20
-31.1074
 30
30.7259
 10
-0.95
 20
-31.3988
 30
30.6869
 10
-0.95
 20
-31.6869
 30
30.6241
 10
-0.95
 20
-31.9774
 30
30.5603
 10
-0.95
 20
-32.2589
 30
30.4697
 10
-0.95
 20
-32.5313
 30
30.3523
 10
-0.95
 20
-33.0686
 30
30.121
 10
-0.95
 20
-33.561
 30
29.7716
 10
-0.95
 20
-33.9688
 30
29.3405
 10
-0.95
 20
-34.3746
 30
28.9129
 10
-0.95
 20
-34.7011
 30
28.4063
 10
-0.95
 20
-34.9542
 30
27.8763
 10
-0.95
 20
-35.2068
 30
27.3474
 10
-0.95
 20
-35.3942
 30
26.784
 10
-0.95
 20
-35.5344
 30
26.21
 10
-0.95
 20
-35.6711
 30
25.6381
 10
-0.95
 20
-35.7676
 30
25.0648
 10
-0.95
 20
-35.824
 30
24.4902
 10
-0.95
 20
-35.9424
 30
23.3412
 10
-0.95
 20
-35.9358
 30
22.1879
 10
-0.95
 20
-35.8573
 30
21.0322
 10
-0.95
 20
-35.7789
 30
19.8765
 10
-0.95
 20
-35.6252
 30
18.7151
 10
-0.95
 20
-35.4227
 30
17.5707
 10
-0.95
 20
-35.0163
 30
15.2822
 10
-0.95
 20
-34.4195
 30
13.0391
 10
-0.95
 20
-33.7078
 30
10.8233
 10
-0.95
 20
-32.9935
 30
8.60615
 10
-0.95
 20
-32.1667
 30
6.43977
 10
-0.95
 20
-31.2607
 30
4.31725
 10
-0.95
 20
-30.3518
 30
2.19514
 10
-0.95
 20
-29.3677
 30
0.11071
 10
-0.95
 20
-28.3085
 30
-1.93604
 10
-0.95
 20
-27.2506
 30
-3.98349
 10
-0.95
 20
-26.1265
 30
-5.99768
 10
-0.95
 20
-24.936
 30
-7.9786
 10
-0.95
 20
-23.747
 30
-9.9587
 10
-0.95
 20
-22.4907
 30
-11.912
 10
-0.95
 20
-21.1755
 30
-13.8228
 10
-0.95
 20
-19.8627
 30
-15.7328
 10
-0.95
 20
-18.491
 30
-17.5933
 10
-0.95
 20
-17.0606
 30
-19.4043
 10
-0.95
 20
-15.6291
 30
-21.2143
 10
-0.95
 20
-14.1366
 30
-22.9729
 10
-0.95
 20
-12.5573
 30
-24.6583
 10
-0.95
 20
-11.7691
 30
-25.5023
 10
-0.95
 20
-10.9547
 30
-26.324
 10
-0.95
 20
-10.1139
 30
-27.1237
 10
-0.95
 20
-9.27272
 30
-27.9208
 10
-0.95
 20
-8.39608
 30
-28.6978
 10
-0.95
 20
-7.4824
 30
-29.4225
 10
-0.95
 20
-6.56881
 30
-30.1448
 10
-0.95
 20
-5.62298
 30
-30.8187
 10
-0.95
 20
-4.6056
 30
-31.3853
 10
-0.95
 20
-4.09783
 30
-31.667
 10
-0.95
 20
-3.56462
 30
-31.9241
 10
-0.95
 20
-3.01143
 30
-32.1245
 10
-0.95
 20
-2.45985
 30
-32.3229
 10
-0.95
 20
-1.89431
 30
-32.4672
 10
-0.95
 20
-1.3
 30
-32.5
  0
SPLINE
  5
CF0
330
A02
100
AcDbEntity
  8
Compound
100
AcDbSpline
210
0
220
0
230
1
 70
8
 71
3
 72
14
 73
10
 74
0
 40
0
 40
0
 40
0
 40
0
 40
0.000734912
 40
0.000734912
 40
0.000734912
 40
0.00146982
 40
0.00146982
 40
0.00146982
 40
0.00293965
 40
0.00293965
 40
0.00293965
 40
0.00293965
 10
0.95
 20
-1.3
 30
18.5
 10
1.1973
 20
-1.3
 30
18.5003
 10
1.4407
 20
-1.3
 30
18.4434
 10
1.66465
 20
-1.3
 30
18.337
 10
1.88653
 20
-1.3
 30
18.2314
 10
2.08603
 20
-1.3
 30
18.077
 10
2.24789
 20
-1.3
 30
17.8925
 10
2.57415
 20
-1.3
 30
17.521
 10
2.75045
 20
-1.3
 30
17.0294
 10
2.75
 20
-1.3
 30
16.5358
  0
SPLINE
  5
CF1
330
A02
100
AcDbEntity
  8
Compound
100
AcDbSpline
210
0
220
0
230
1
 70
8
 71
3
 72
104
 73
100
 74
0
 40
-6e-08
 40
-6e-08
 40
-6e-08
 40
-6e-08
 40
0.0017509
 40
0.0017509
 40
0.0017509
 40
0.00350185
 40
0.00350185
 40
0.00350185
 40
0.00700376
 40
0.00700376
 40
0.00700376
 40
0.0105057
 40
0.0105057
 40
0.0105057
 40
0.0140076
 40
0.0140076
 40
0.0140076
 40
0.0210114
 40
0.0210114
 40
0.0210114
 40
0.0280152
 40
0.0280152
 40
0.0280152
 40
0.0350191
 40
0.0350191
 40
0.0350191
 40
0.0420229
 40
0.0420229
 40
0.0420229
 40
0.0490267
 40
0.0490267
 40
0.0490267
 40
0.0560305
 40
0.0560305
 40
0.0560305
 40
0.0630343
 40
0.0630343
 40
0.0630343
 40
0.0665363
 40
0.0665363
 40
0.0665363
 40
0.0700382
 40
0.0700382
 40
0.0700382
 40
0.0717891
 40
0.0717891
 40
0.0717891
 40
0.0735401
 40
0.0735401
 40
0.0735401
 40
0.075291
 40
0.075291
 40
0.075291
 40
0.077042
 40
0.077042
 40
0.077042
 40
0.0779175
 40
0.0779175
 40
0.0779175
 40
0.0787929
 40
0.0787929
 40
0.0787929
 40
0.0805439
 40
0.0805439
 40
0.0805439
 40
0.0822949
 40
0.0822949
 40
0.0822949
 40
0.0840458
 40
0.0840458
 40
0.0840458
 40
0.0875477
 40
0.0875477
 40
0.0875477
 40
0.0910496
 40
0.0910496
 40
0.0910496
 40
0.0980535
 40
0.0980535
 40
0.0980535
 40
0.101555
 40
0.101555
 40
0.101555
 40
0.103306
 40
0.103306
 40
0.103306
 40
0.105057
 40
0.105057
 40
0.105057
 40
0.106808
 40
0.106808
 40
0.106808
 40
0.108559
 40
0.108559
 40
0.108559
 40
0.11031
 40
0.11031
 40
0.11031
 40
0.112061
 40
0.112061
 40
0.112061
 40
0.112061
 10
0.95
 20
-1.3
 30
-32.5
 10
0.95
 20
-1.89411
 30
-32.467
 10
0.95
 20
-2.45999
 30
-32.323
 10
0.95
 20
-3.01143
 30
-32.1245
 10
0.95
 20
-3.56462
 30
-31.9241
 10
0.95
 20
-4.09783
 30
-31.667
 10
0.95
 20
-4.6056
 30
-31.3853
 10
0.95
 20
-5.62298
 30
-30.8187
 10
0.95
 20
-6.56881
 30
-30.1448
 10
0.95
 20
-7.4824
 30
-29.4225
 10
0.95
 20
-8.39608
 30
-28.6978
 10
0.95
 20
-9.27272
 30
-27.9208
 10
0.95
 20
-10.1139
 30
-27.1237
 10
0.95
 20
-10.9547
 30
-26.324
 10
0.95
 20
-11.7691
 30
-25.5023
 10
0.95
 20
-12.5573
 30
-24.6583
 10
0.95
 20
-14.1366
 30
-22.9729
 10
0.95
 20
-15.6291
 30
-21.2143
 10
0.95
 20
-17.0606
 30
-19.4043
 10
0.95
 20
-18.491
 30
-17.5933
 10
0.95
 20
-19.8627
 30
-15.7328
 10
0.95
 20
-21.1755
 30
-13.8228
 10
0.95
 20
-22.4907
 30
-11.912
 10
0.95
 20
-23.747
 30
-9.9587
 10
0.95
 20
-24.936
 30
-7.9786
 10
0.95
 20
-26.1265
 30
-5.99768
 10
0.95
 20
-27.2506
 30
-3.98349
 10
0.95
 20
-28.3085
 30
-1.93604
 10
0.95
 20
-29.3677
 30
0.11071
 10
0.95
 20
-30.3518
 30
2.19514
 10
0.95
 20
-31.2607
 30
4.31725
 10
0.95
 20
-32.1667
 30
6.43977
 10
0.95
 20
-32.9935
 30
8.60615
 10
0.95
 20
-33.7078
 30
10.8233
 10
0.95
 20
-34.4195
 30
13.0391
 10
0.95
 20
-35.0163
 30
15.2822
 10
0.95
 20
-35.4227
 30
17.5707
 10
0.95
 20
-35.6252
 30
18.7151
 10
0.95
 20
-35.7789
 30
19.8765
 10
0.95
 20
-35.8573
 30
21.0322
 10
0.95
 20
-35.9358
 30
22.1879
 10
0.95
 20
-35.9424
 30
23.3412
 10
0.95
 20
-35.824
 30
24.4902
 10
0.95
 20
-35.7676
 30
25.0648
 10
0.95
 20
-35.6711
 30
25.6381
 10
0.95
 20
-35.5344
 30
26.21
 10
0.95
 20
-35.3942
 30
26.784
 10
0.95
 20
-35.2068
 30
27.3474
 10
0.95
 20
-34.9542
 30
27.8763
 10
0.95
 20
-34.7011
 30
28.4063
 10
0.95
 20
-34.3746
 30
28.9129
 10
0.95
 20
-33.9688
 30
29.3405
 10
0.95
 20
-33.561
 30
29.7716
 10
0.95
 20
-33.0686
 30
30.121
 10
0.95
 20
-32.5313
 30
30.3523
 10
0.95
 20
-32.2589
 30
30.4697
 10
0.95
 20
-31.9774
 30
30.5603
 10
0.95
 20
-31.6869
 30
30.6241
 10
0.95
 20
-31.3988
 30
30.6869
 10
0.95
 20
-31.1074
 30
30.7259
 10
0.95
 20
-30.8125
 30
30.7411
 10
0.95
 20
-30.2198
 30
30.7727
 10
0.95
 20
-29.6273
 30
30.7175
 10
0.95
 20
-29.0521
 30
30.6101
 10
0.95
 20
-28.4749
 30
30.5023
 10
0.95
 20
-27.903
 30
30.3397
 10
0.95
 20
-27.348
 30
30.1452
 10
0.95
 20
-26.794
 30
29.9489
 10
0.95
 20
-26.2534
 30
29.7262
 10
0.95
 20
-25.7263
 30
29.4771
 10
0.95
 20
-24.6704
 30
28.9825
 10
0.95
 20
-23.6571
 30
28.4047
 10
0.95
 20
-22.6656
 30
27.7844
 10
0.95
 20
-21.674
 30
27.1641
 10
0.95
 20
-20.7055
 30
26.4998
 10
0.95
 20
-19.7529
 30
25.8175
 10
0.95
 20
-17.8471
 30
24.454
 10
0.95
 20
-16.0018
 30
23.0072
 10
0.95
 20
-14.1109
 30
21.6232
 10
0.95
 20
-13.165
 30
20.9318
 10
0.95
 20
-12.2057
 30
20.2551
 10
0.95
 20
-11.2127
 30
19.6368
 10
0.95
 20
-10.7171
 30
19.3261
 10
0.95
 20
-10.2102
 30
19.0352
 10
0.95
 20
-9.69198
 30
18.764
 10
0.95
 20
-9.17284
 30
18.4945
 10
0.95
 20
-8.63621
 30
18.2483
 10
0.95
 20
-8.08783
 30
18.0465
 10
0.95
 20
-7.54033
 30
17.8414
 10
0.95
 20
-6.97829
 30
17.69
 10
0.95
 20
-6.40171
 30
17.5924
 10
0.95
 20
-5.82165
 30
17.4971
 10
0.95
 20
-5.22757
 30
17.4706
 10
0.95
 20
-4.65206
 30
17.518
 10
0.95
 20
-4.07408
 30
17.5675
 10
0.95
 20
-3.50354
 30
17.6802
 10
0.95
 20
-2.94046
 30
17.8562
 10
0.95
 20
-2.37751
 30
18.0294
 10
0.95
 20
-1.83394
 30
18.2523
 10
0.95
 20
-1.3
 30
18.5
  0
SPLINE
  5
CF2
330
A02
100
AcDbEntity
  8
Compound
100
AcDbSpline
210
0
220
0
230
1
 70
8
 71
3
 72
14
 73
10
 74
0
 40
3.49645e-18
 40
3.49645e-18
 40
3.49645e-18
 40
3.49645e-18
 40
0.000703866
 40
0.000703866
 40
0.000703866
 40
0.00140773
 40
0.00140773
 40
0.00140773
 40
0.00281547
 40
0.00281547
 40
0.00281547
 40
0.00281547
 10
2.75
 20
-1.3
 30
-30.6957
 10
2.74968
 20
-1.3
 30
-30.9343
 10
2.70417
 20
-1.3
 30
-31.1642
 10
2.61345
 20
-1.3
 30
-31.3856
 10
2.52417
 20
-1.3
 30
-31.6028
 10
2.3913
 20
-1.3
 30
-31.8026
 10
2.22422
 20
-1.3
 30
-31.9705
 10
1.89111
 20
-1.3
 30
-32.3061
 10
1.42712
 20
-1.3
 30
-32.5011
 10
0.95
 20
-1.3
 30
-32.5
  0
SPLINE
  5
CF3
330
A02
100
AcDbEntity
  8
Compound
100
AcDbSpline
210
0
220
0
230
1
 70
8
 71
3
 72
92
 73
88
 74
0
 40
0
 40
0
 40
0
 40
0
 40
0.00335128
 40
0.00335128
 40
0.00335128
 40
0.00502691
 40
0.00502691
 40
0.00502691
 40
0.00670255
 40
0.00670255
 40
0.00670255
 40
0.0100538
 40
0.0100538
 40
0.0100538
 40
0.0134051
 40
0.0134051
 40
0.0134051
 40
0.0201077
 40
0.0201077
 40
0.0201077
 40
0.0268102
 40
0.0268102
 40
0.0268102
 40
0.0301615
 40
0.0301615
 40
0.0301615
 40
0.0318371
 40
0.0318371
 40
0.0318371
 40
0.0326749
 40
0.0326749
 40
0.0326749
 40
0.0335128
 40
0.0335128
 40
0.0335128
 40
0.0343506
 40
0.0343506
 40
0.0343506
 40
0.0351884
 40
0.0351884
 40
0.0351884
 40
0.036864
 40
0.036864
 40
0.036864
 40
0.0385397
 40
0.0385397
 40
0.0385397
 40
0.0402153
 40
0.0402153
 40
0.0402153
 40
0.0435666
 40
0.0435666
 40
0.0435666
 40
0.0469179
 40
0.0469179
 40
0.0469179
 40
0.0536204
 40
0.0536204
 40
0.0536204
 40
0.060323
 40
0.060323
 40
0.060323
 40
0.0670255
 40
0.0670255
 40
0.0670255
 40
0.0737281
 40
0.0737281
 40
0.0737281
 40
0.0804306
 40
0.0804306
 40
0.0804306
 40
0.0871332
 40
0.0871332
 40
0.0871332
 40
0.0938357
 40
0.0938357
 40
0.0938357
 40
0.100538
 40
0.100538
 40
0.100538
 40
0.10389
 40
0.10389
 40
0.10389
 40
0.105565
 40
0.105565
 40
0.105565
 40
0.107241
 40
0.107241
 40
0.107241
 40
0.107241
 10
2.75
 20
-1.3
 30
16.5358
 10
2.75
 20
-2.33626
 30
16.1098
 10
2.75
 20
-3.42116
 30
15.8079
 10
2.75
 20
-4.51518
 30
15.7232
 10
2.75
 20
-5.06389
 30
15.6791
 10
2.75
 20
-5.61762
 30
15.6867
 10
2.75
 20
-6.17636
 30
15.7462
 10
2.75
 20
-6.73179
 30
15.8073
 10
2.75
 20
-7.27523
 30
15.9132
 10
2.75
 20
-7.80666
 30
16.064
 10
2.75
 20
-8.8687
 30
16.3613
 10
2.75
 20
-9.89912
 30
16.8234
 10
2.75
 20
-10.8719
 30
17.3529
 10
2.75
 20
-11.847
 30
17.8833
 10
2.75
 20
-12.7815
 30
18.4866
 10
2.75
 20
-13.6974
 30
19.1187
 10
2.75
 20
-15.5277
 30
20.3849
 10
2.75
 20
-17.282
 30
21.7558
 10
2.75
 20
-19.0672
 30
23.0841
 10
2.75
 20
-20.8502
 30
24.4107
 10
2.75
 20
-22.6621
 30
25.7194
 10
2.75
 20
-24.579
 30
26.8377
 10
2.75
 20
-25.5376
 30
27.3938
 10
2.75
 20
-26.5202
 30
27.9032
 10
2.75
 20
-27.5584
 30
28.3048
 10
2.75
 20
-28.0778
 30
28.5049
 10
2.75
 20
-28.6163
 30
28.6782
 10
2.75
 20
-29.1623
 30
28.7963
 10
2.75
 20
-29.4352
 30
28.8563
 10
2.75
 20
-29.7109
 30
28.8997
 10
2.75
 20
-29.9895
 30
28.9266
 10
2.75
 20
-30.2701
 30
28.9542
 10
2.75
 20
-30.551
 30
28.9572
 10
2.75
 20
-30.8322
 30
28.9357
 10
2.75
 20
-31.1109
 30
28.9126
 10
2.75
 20
-31.3884
 30
28.8599
 10
2.75
 20
-31.6557
 30
28.764
 10
2.75
 20
-31.9217
 30
28.6689
 10
2.75
 20
-32.1657
 30
28.5328
 10
2.75
 20
-32.3875
 30
28.3556
 10
2.75
 20
-32.8294
 30
28.0016
 10
2.75
 20
-33.1438
 30
27.513
 10
2.75
 20
-33.3743
 30
27.0053
 10
2.75
 20
-33.604
 30
26.498
 10
2.75
 20
-33.7601
 30
25.9493
 10
2.75
 20
-33.8697
 30
25.4048
 10
2.75
 20
-33.976
 30
24.8605
 10
2.75
 20
-34.0456
 30
24.3151
 10
2.75
 20
-34.0785
 30
23.7687
 10
2.75
 20
-34.15
 30
22.6759
 10
2.75
 20
-34.11
 30
21.5799
 10
2.75
 20
-34.007
 30
20.482
 10
2.75
 20
-33.9035
 30
19.3823
 10
2.75
 20
-33.7347
 30
18.2857
 10
2.75
 20
-33.5239
 30
17.2056
 10
2.75
 20
-33.1003
 30
15.0431
 10
2.75
 20
-32.5089
 30
12.9201
 10
2.75
 20
-31.8137
 30
10.8224
 10
2.75
 20
-31.1175
 30
8.72537
 10
2.75
 20
-30.3216
 30
6.67834
 10
2.75
 20
-29.4523
 30
4.66811
 10
2.75
 20
-28.5811
 30
2.65884
 10
2.75
 20
-27.6414
 30
0.683911
 10
2.75
 20
-26.6333
 30
-1.25669
 10
2.75
 20
-25.6265
 30
-3.19788
 10
2.75
 20
-24.5589
 30
-5.10864
 10
2.75
 20
-23.4306
 30
-6.98895
 10
2.75
 20
-22.3037
 30
-8.86858
 10
2.75
 20
-21.1155
 30
-10.7231
 10
2.75
 20
-19.8725
 30
-12.5403
 10
2.75
 20
-18.6315
 30
-14.3567
 10
2.75
 20
-17.3372
 30
-16.1282
 10
2.75
 20
-15.9894
 30
-17.8546
 10
2.75
 20
-14.6406
 30
-19.5802
 10
2.75
 20
-13.2366
 30
-21.2593
 10
2.75
 20
-11.7565
 30
-22.8743
 10
2.75
 20
-10.2752
 30
-24.4866
 10
2.75
 20
-8.72317
 30
-26.0457
 10
2.75
 20
-7.0247
 30
-27.4733
 10
2.75
 20
-6.17455
 30
-28.1841
 10
2.75
 20
-5.2974
 30
-28.8547
 10
2.75
 20
-4.36257
 30
-29.4394
 10
2.75
 20
-3.89478
 30
-29.7312
 10
2.75
 20
-3.41247
 30
-30.0013
 10
2.75
 20
-2.90139
 30
-30.2287
 10
2.75
 20
-2.38831
 30
-30.4534
 10
2.75
 20
-1.86195
 30
-30.6422
 10
2.75
 20
-1.3
 30
-30.6957
  0
ARC
  5
CF4
330
A02
100
AcDbEntity
  8
Compound
100
AcDbCircle
 10
-6
 20
-2.5
 30
11
 40
0
100
AcDbArc
 50
90
 51
0
  0
ARC
  5
CF5
330
A02
100
AcDbEntity
  8
Compound
100
AcDbCircle
 10
-6
 20
-2.5
 30
11
 40
4.44089e-16
100
AcDbArc
 50
-90
 51
90
  0
LINE
  5
CF6
330
A02
100
AcDbEntity
  8
Compound
100
AcDbLine
 10
-2.75
 20
-2.5
 30
9
 11
-6
 21
-2.5
 31
9
  0
ARC
  5
CF7
330
A02
100
AcDbEntity
  8
Compound
100
AcDbCircle
 10
-2.75
 20
-2.5
 30
11
 40
4.44089e-16
100
AcDbArc
 50
-90
 51
90
  0
LINE
  5
CF8
330
A02
100
AcDbEntity
  8
Compound
100
AcDbLine
 10
-2.75
 20
-2.5
 30
13
 11
-6
 21
-2.5
 31
13
  0
ARC
  5
CF9
330
A02
100
AcDbEntity
  8
Compound
100
AcDbCircle
 10
-6
 20
-2.5
 30
11
 40
4.44089e-16
100
AcDbArc
 50
-90
 51
90
  0
LINE
  5
CFA
330
A02
100
AcDbEntity
  8
Compound
100
AcDbLine
 10
6
 20
-2.5
 30
9
 11
2.75
 21
-2.5
 31
9
  0
ARC
  5
CFB
330
A02
100
AcDbEntity
  8
Compound
100
AcDbCircle
 10
6
 20
-2.5
 30
11
 40
0
100
AcDbArc
 50
-90
 51
0
  0
LINE
  5
CFC
330
A02
100
AcDbEntity
  8
Compound
100
AcDbLine
 10
6
 20
-2.5
 30
13
 11
2.75
 21
-2.5
 31
13
  0
ARC
  5
CFD
330
A02
100
AcDbEntity
  8
Compound
100
AcDbCircle
 10
2.75
 20
-2.5
 30
11
 40
4.44089e-16
100
AcDbArc
 50
-90
 51
90
  0
ARC
  5
CFE
330
A02
100
AcDbEntity
  8
Compound
100
AcDbCircle
 10
6
 20
-2.5
 30
11
 40
0
100
AcDbArc
 50
-90
 51
0
  0
ARC
  5
CFF
330
A02
100
AcDbEntity
  8
Compound
100
AcDbCircle
 10
6
 20
-2.5
 30
11
 40
4.44089e-16
100
AcDbArc
 50
90
 51
-90
  0
ENDSEC
  0
SECTION
  2
OBJECTS
  0
DICTIONARY
  5
F000
330
0
100
AcDbDictionary
  3
ACAD_GROUP
350
F001
  0
DICTIONARY
  5
F001
330
F000
100
AcDbDictionary
  0
ENDSEC
  0
EOF